ISO-10303-21;
HEADER;
/* Generated by software containing ST-Developer
 * from STEP Tools, Inc. (www.steptools.com) 
 */

FILE_DESCRIPTION(
/* description */ ('Fl\X\E4ns (Spiro) Muff'),
/* implementation_level */ '2;1');

FILE_NAME(
/* name */ 
'C:\\Vault_WS\\Designs\\CHV\\Heat\\Fl\X\E4nsar\\HFSMH\\Output\\HFSMH-2
00.stp',
/* time_stamp */ '2016-02-10T10:19:11+01:00',
/* author */ ('John'),
/* organization */ (''),
/* preprocessor_version */ 'ST-DEVELOPER v15.6',
/* originating_system */ 'Autodesk Inventor 2015',
/* authorisation */ '');

FILE_SCHEMA (('AUTOMOTIVE_DESIGN { 1 0 10303 214 3 1 1 }'));
ENDSEC;

DATA;
#10=MECHANICAL_DESIGN_GEOMETRIC_PRESENTATION_REPRESENTATION('',(#13),#307);
#11=SHAPE_REPRESENTATION_RELATIONSHIP('SRR','None',#316,#12);
#12=ADVANCED_BREP_SHAPE_REPRESENTATION($,(#14),#306);
#13=STYLED_ITEM('',(#325),#14);
#14=MANIFOLD_SOLID_BREP('Solid2',#179);
#15=PLANE('',#205);
#16=PLANE('',#206);
#17=FACE_BOUND('',#50,.T.);
#18=FACE_BOUND('',#52,.T.);
#19=FACE_BOUND('',#54,.T.);
#20=FACE_BOUND('',#56,.T.);
#21=FACE_BOUND('',#58,.T.);
#22=FACE_BOUND('',#60,.T.);
#23=FACE_BOUND('',#62,.T.);
#24=FACE_BOUND('',#64,.T.);
#25=FACE_BOUND('',#66,.T.);
#26=FACE_BOUND('',#67,.T.);
#27=FACE_BOUND('',#68,.T.);
#28=FACE_BOUND('',#69,.T.);
#29=FACE_BOUND('',#70,.T.);
#30=FACE_BOUND('',#71,.T.);
#31=FACE_BOUND('',#72,.T.);
#32=FACE_BOUND('',#74,.T.);
#33=FACE_BOUND('',#75,.T.);
#34=FACE_BOUND('',#76,.T.);
#35=FACE_BOUND('',#77,.T.);
#36=FACE_BOUND('',#78,.T.);
#37=FACE_BOUND('',#79,.T.);
#38=FACE_BOUND('',#80,.T.);
#39=FACE_OUTER_BOUND('',#49,.T.);
#40=FACE_OUTER_BOUND('',#51,.T.);
#41=FACE_OUTER_BOUND('',#53,.T.);
#42=FACE_OUTER_BOUND('',#55,.T.);
#43=FACE_OUTER_BOUND('',#57,.T.);
#44=FACE_OUTER_BOUND('',#59,.T.);
#45=FACE_OUTER_BOUND('',#61,.T.);
#46=FACE_OUTER_BOUND('',#63,.T.);
#47=FACE_OUTER_BOUND('',#65,.T.);
#48=FACE_OUTER_BOUND('',#73,.T.);
#49=EDGE_LOOP('',(#129));
#50=EDGE_LOOP('',(#130));
#51=EDGE_LOOP('',(#131));
#52=EDGE_LOOP('',(#132));
#53=EDGE_LOOP('',(#133));
#54=EDGE_LOOP('',(#134));
#55=EDGE_LOOP('',(#135));
#56=EDGE_LOOP('',(#136));
#57=EDGE_LOOP('',(#137));
#58=EDGE_LOOP('',(#138));
#59=EDGE_LOOP('',(#139));
#60=EDGE_LOOP('',(#140));
#61=EDGE_LOOP('',(#141));
#62=EDGE_LOOP('',(#142));
#63=EDGE_LOOP('',(#143));
#64=EDGE_LOOP('',(#144));
#65=EDGE_LOOP('',(#145));
#66=EDGE_LOOP('',(#146));
#67=EDGE_LOOP('',(#147));
#68=EDGE_LOOP('',(#148));
#69=EDGE_LOOP('',(#149));
#70=EDGE_LOOP('',(#150));
#71=EDGE_LOOP('',(#151));
#72=EDGE_LOOP('',(#152));
#73=EDGE_LOOP('',(#153));
#74=EDGE_LOOP('',(#154));
#75=EDGE_LOOP('',(#155));
#76=EDGE_LOOP('',(#156));
#77=EDGE_LOOP('',(#157));
#78=EDGE_LOOP('',(#158));
#79=EDGE_LOOP('',(#159));
#80=EDGE_LOOP('',(#160));
#81=CIRCLE('',#182,102.75);
#82=CIRCLE('',#183,102.75);
#83=CIRCLE('',#185,4.);
#84=CIRCLE('',#186,4.);
#85=CIRCLE('',#188,4.);
#86=CIRCLE('',#189,4.);
#87=CIRCLE('',#191,4.);
#88=CIRCLE('',#192,4.);
#89=CIRCLE('',#194,4.);
#90=CIRCLE('',#195,4.);
#91=CIRCLE('',#197,4.);
#92=CIRCLE('',#198,4.);
#93=CIRCLE('',#200,4.);
#94=CIRCLE('',#201,4.);
#95=CIRCLE('',#203,128.);
#96=CIRCLE('',#204,128.);
#97=VERTEX_POINT('',#263);
#98=VERTEX_POINT('',#265);
#99=VERTEX_POINT('',#268);
#100=VERTEX_POINT('',#270);
#101=VERTEX_POINT('',#273);
#102=VERTEX_POINT('',#275);
#103=VERTEX_POINT('',#278);
#104=VERTEX_POINT('',#280);
#105=VERTEX_POINT('',#283);
#106=VERTEX_POINT('',#285);
#107=VERTEX_POINT('',#288);
#108=VERTEX_POINT('',#290);
#109=VERTEX_POINT('',#293);
#110=VERTEX_POINT('',#295);
#111=VERTEX_POINT('',#298);
#112=VERTEX_POINT('',#300);
#113=EDGE_CURVE('',#97,#97,#81,.T.);
#114=EDGE_CURVE('',#98,#98,#82,.T.);
#115=EDGE_CURVE('',#99,#99,#83,.T.);
#116=EDGE_CURVE('',#100,#100,#84,.T.);
#117=EDGE_CURVE('',#101,#101,#85,.T.);
#118=EDGE_CURVE('',#102,#102,#86,.T.);
#119=EDGE_CURVE('',#103,#103,#87,.T.);
#120=EDGE_CURVE('',#104,#104,#88,.T.);
#121=EDGE_CURVE('',#105,#105,#89,.T.);
#122=EDGE_CURVE('',#106,#106,#90,.T.);
#123=EDGE_CURVE('',#107,#107,#91,.T.);
#124=EDGE_CURVE('',#108,#108,#92,.T.);
#125=EDGE_CURVE('',#109,#109,#93,.T.);
#126=EDGE_CURVE('',#110,#110,#94,.T.);
#127=EDGE_CURVE('',#111,#111,#95,.T.);
#128=EDGE_CURVE('',#112,#112,#96,.T.);
#129=ORIENTED_EDGE('',*,*,#113,.F.);
#130=ORIENTED_EDGE('',*,*,#114,.F.);
#131=ORIENTED_EDGE('',*,*,#115,.F.);
#132=ORIENTED_EDGE('',*,*,#116,.F.);
#133=ORIENTED_EDGE('',*,*,#117,.F.);
#134=ORIENTED_EDGE('',*,*,#118,.F.);
#135=ORIENTED_EDGE('',*,*,#119,.F.);
#136=ORIENTED_EDGE('',*,*,#120,.F.);
#137=ORIENTED_EDGE('',*,*,#121,.F.);
#138=ORIENTED_EDGE('',*,*,#122,.F.);
#139=ORIENTED_EDGE('',*,*,#123,.F.);
#140=ORIENTED_EDGE('',*,*,#124,.F.);
#141=ORIENTED_EDGE('',*,*,#125,.F.);
#142=ORIENTED_EDGE('',*,*,#126,.F.);
#143=ORIENTED_EDGE('',*,*,#127,.T.);
#144=ORIENTED_EDGE('',*,*,#128,.F.);
#145=ORIENTED_EDGE('',*,*,#127,.F.);
#146=ORIENTED_EDGE('',*,*,#113,.T.);
#147=ORIENTED_EDGE('',*,*,#115,.T.);
#148=ORIENTED_EDGE('',*,*,#117,.T.);
#149=ORIENTED_EDGE('',*,*,#119,.T.);
#150=ORIENTED_EDGE('',*,*,#121,.T.);
#151=ORIENTED_EDGE('',*,*,#123,.T.);
#152=ORIENTED_EDGE('',*,*,#125,.T.);
#153=ORIENTED_EDGE('',*,*,#128,.T.);
#154=ORIENTED_EDGE('',*,*,#114,.T.);
#155=ORIENTED_EDGE('',*,*,#116,.T.);
#156=ORIENTED_EDGE('',*,*,#118,.T.);
#157=ORIENTED_EDGE('',*,*,#120,.T.);
#158=ORIENTED_EDGE('',*,*,#122,.T.);
#159=ORIENTED_EDGE('',*,*,#124,.T.);
#160=ORIENTED_EDGE('',*,*,#126,.T.);
#161=CYLINDRICAL_SURFACE('',#181,102.75);
#162=CYLINDRICAL_SURFACE('',#184,4.);
#163=CYLINDRICAL_SURFACE('',#187,4.);
#164=CYLINDRICAL_SURFACE('',#190,4.);
#165=CYLINDRICAL_SURFACE('',#193,4.);
#166=CYLINDRICAL_SURFACE('',#196,4.);
#167=CYLINDRICAL_SURFACE('',#199,4.);
#168=CYLINDRICAL_SURFACE('',#202,128.);
#169=ADVANCED_FACE('',(#39,#17),#161,.F.);
#170=ADVANCED_FACE('',(#40,#18),#162,.F.);
#171=ADVANCED_FACE('',(#41,#19),#163,.F.);
#172=ADVANCED_FACE('',(#42,#20),#164,.F.);
#173=ADVANCED_FACE('',(#43,#21),#165,.F.);
#174=ADVANCED_FACE('',(#44,#22),#166,.F.);
#175=ADVANCED_FACE('',(#45,#23),#167,.F.);
#176=ADVANCED_FACE('',(#46,#24),#168,.T.);
#177=ADVANCED_FACE('',(#47,#25,#26,#27,#28,#29,#30,#31),#15,.F.);
#178=ADVANCED_FACE('',(#48,#32,#33,#34,#35,#36,#37,#38),#16,.T.);
#179=CLOSED_SHELL('',(#169,#170,#171,#172,#173,#174,#175,#176,#177,#178));
#180=AXIS2_PLACEMENT_3D('placement',#261,#207,#208);
#181=AXIS2_PLACEMENT_3D('',#262,#209,#210);
#182=AXIS2_PLACEMENT_3D('',#264,#211,#212);
#183=AXIS2_PLACEMENT_3D('',#266,#213,#214);
#184=AXIS2_PLACEMENT_3D('',#267,#215,#216);
#185=AXIS2_PLACEMENT_3D('',#269,#217,#218);
#186=AXIS2_PLACEMENT_3D('',#271,#219,#220);
#187=AXIS2_PLACEMENT_3D('',#272,#221,#222);
#188=AXIS2_PLACEMENT_3D('',#274,#223,#224);
#189=AXIS2_PLACEMENT_3D('',#276,#225,#226);
#190=AXIS2_PLACEMENT_3D('',#277,#227,#228);
#191=AXIS2_PLACEMENT_3D('',#279,#229,#230);
#192=AXIS2_PLACEMENT_3D('',#281,#231,#232);
#193=AXIS2_PLACEMENT_3D('',#282,#233,#234);
#194=AXIS2_PLACEMENT_3D('',#284,#235,#236);
#195=AXIS2_PLACEMENT_3D('',#286,#237,#238);
#196=AXIS2_PLACEMENT_3D('',#287,#239,#240);
#197=AXIS2_PLACEMENT_3D('',#289,#241,#242);
#198=AXIS2_PLACEMENT_3D('',#291,#243,#244);
#199=AXIS2_PLACEMENT_3D('',#292,#245,#246);
#200=AXIS2_PLACEMENT_3D('',#294,#247,#248);
#201=AXIS2_PLACEMENT_3D('',#296,#249,#250);
#202=AXIS2_PLACEMENT_3D('',#297,#251,#252);
#203=AXIS2_PLACEMENT_3D('',#299,#253,#254);
#204=AXIS2_PLACEMENT_3D('',#301,#255,#256);
#205=AXIS2_PLACEMENT_3D('',#302,#257,#258);
#206=AXIS2_PLACEMENT_3D('',#303,#259,#260);
#207=DIRECTION('axis',(0.,0.,1.));
#208=DIRECTION('refdir',(1.,0.,0.));
#209=DIRECTION('center_axis',(0.,0.,1.));
#210=DIRECTION('ref_axis',(-1.,0.,0.));
#211=DIRECTION('center_axis',(0.,0.,-1.));
#212=DIRECTION('ref_axis',(-1.,0.,0.));
#213=DIRECTION('center_axis',(0.,0.,1.));
#214=DIRECTION('ref_axis',(-1.,0.,0.));
#215=DIRECTION('center_axis',(0.,0.,1.));
#216=DIRECTION('ref_axis',(-1.,0.,0.));
#217=DIRECTION('center_axis',(0.,0.,-1.));
#218=DIRECTION('ref_axis',(-1.,0.,0.));
#219=DIRECTION('center_axis',(0.,0.,1.));
#220=DIRECTION('ref_axis',(-1.,0.,0.));
#221=DIRECTION('center_axis',(0.,0.,1.));
#222=DIRECTION('ref_axis',(-1.,0.,0.));
#223=DIRECTION('center_axis',(0.,0.,-1.));
#224=DIRECTION('ref_axis',(-1.,0.,0.));
#225=DIRECTION('center_axis',(0.,0.,1.));
#226=DIRECTION('ref_axis',(-1.,0.,0.));
#227=DIRECTION('center_axis',(0.,0.,1.));
#228=DIRECTION('ref_axis',(-1.,0.,0.));
#229=DIRECTION('center_axis',(0.,0.,-1.));
#230=DIRECTION('ref_axis',(-1.,0.,0.));
#231=DIRECTION('center_axis',(0.,0.,1.));
#232=DIRECTION('ref_axis',(-1.,0.,0.));
#233=DIRECTION('center_axis',(0.,0.,1.));
#234=DIRECTION('ref_axis',(-1.,0.,0.));
#235=DIRECTION('center_axis',(0.,0.,-1.));
#236=DIRECTION('ref_axis',(-1.,0.,0.));
#237=DIRECTION('center_axis',(0.,0.,1.));
#238=DIRECTION('ref_axis',(-1.,0.,0.));
#239=DIRECTION('center_axis',(0.,0.,1.));
#240=DIRECTION('ref_axis',(-1.,0.,0.));
#241=DIRECTION('center_axis',(0.,0.,-1.));
#242=DIRECTION('ref_axis',(-1.,0.,0.));
#243=DIRECTION('center_axis',(0.,0.,1.));
#244=DIRECTION('ref_axis',(-1.,0.,0.));
#245=DIRECTION('center_axis',(0.,0.,1.));
#246=DIRECTION('ref_axis',(-1.,0.,0.));
#247=DIRECTION('center_axis',(0.,0.,-1.));
#248=DIRECTION('ref_axis',(-1.,0.,0.));
#249=DIRECTION('center_axis',(0.,0.,1.));
#250=DIRECTION('ref_axis',(-1.,0.,0.));
#251=DIRECTION('center_axis',(0.,0.,1.));
#252=DIRECTION('ref_axis',(-1.,0.,0.));
#253=DIRECTION('center_axis',(0.,0.,-1.));
#254=DIRECTION('ref_axis',(-1.,0.,0.));
#255=DIRECTION('center_axis',(0.,0.,-1.));
#256=DIRECTION('ref_axis',(-1.,0.,0.));
#257=DIRECTION('center_axis',(0.,0.,-1.));
#258=DIRECTION('ref_axis',(-1.,0.,0.));
#259=DIRECTION('center_axis',(0.,0.,-1.));
#260=DIRECTION('ref_axis',(-1.,0.,0.));
#261=CARTESIAN_POINT('',(0.,0.,0.));
#262=CARTESIAN_POINT('Origin',(0.,0.,0.));
#263=CARTESIAN_POINT('',(102.75,1.25832458612391E-14,4.));
#264=CARTESIAN_POINT('Origin',(0.,0.,4.));
#265=CARTESIAN_POINT('',(102.75,1.25832458612391E-14,0.));
#266=CARTESIAN_POINT('Origin',(0.,0.,0.));
#267=CARTESIAN_POINT('Origin',(101.757984944672,58.7499999999999,0.));
#268=CARTESIAN_POINT('',(105.757984944672,58.7499999999999,4.));
#269=CARTESIAN_POINT('Origin',(101.757984944672,58.7499999999999,4.));
#270=CARTESIAN_POINT('',(105.757984944672,58.7499999999999,0.));
#271=CARTESIAN_POINT('Origin',(101.757984944672,58.7499999999999,0.));
#272=CARTESIAN_POINT('Origin',(101.757984944672,-58.7500000000001,0.));
#273=CARTESIAN_POINT('',(105.757984944672,-58.7500000000001,4.));
#274=CARTESIAN_POINT('Origin',(101.757984944672,-58.7500000000001,4.));
#275=CARTESIAN_POINT('',(105.757984944672,-58.7500000000001,0.));
#276=CARTESIAN_POINT('Origin',(101.757984944672,-58.7500000000001,0.));
#277=CARTESIAN_POINT('Origin',(-1.43895998899814E-14,-117.5,0.));
#278=CARTESIAN_POINT('',(3.99999999999999,-117.5,4.));
#279=CARTESIAN_POINT('Origin',(-1.43895998899814E-14,-117.5,4.));
#280=CARTESIAN_POINT('',(3.99999999999999,-117.5,0.));
#281=CARTESIAN_POINT('Origin',(-1.43895998899814E-14,-117.5,0.));
#282=CARTESIAN_POINT('Origin',(-101.757984944672,-58.75,0.));
#283=CARTESIAN_POINT('',(-97.7579849446715,-58.75,4.));
#284=CARTESIAN_POINT('Origin',(-101.757984944672,-58.75,4.));
#285=CARTESIAN_POINT('',(-97.7579849446715,-58.75,0.));
#286=CARTESIAN_POINT('Origin',(-101.757984944672,-58.75,0.));
#287=CARTESIAN_POINT('Origin',(-101.757984944672,58.75,0.));
#288=CARTESIAN_POINT('',(-97.7579849446715,58.75,4.));
#289=CARTESIAN_POINT('Origin',(-101.757984944672,58.75,4.));
#290=CARTESIAN_POINT('',(-97.7579849446715,58.75,0.));
#291=CARTESIAN_POINT('Origin',(-101.757984944672,58.75,0.));
#292=CARTESIAN_POINT('Origin',(0.,117.5,0.));
#293=CARTESIAN_POINT('',(4.,117.5,4.));
#294=CARTESIAN_POINT('Origin',(0.,117.5,4.));
#295=CARTESIAN_POINT('',(4.,117.5,0.));
#296=CARTESIAN_POINT('Origin',(0.,117.5,0.));
#297=CARTESIAN_POINT('Origin',(0.,0.,0.));
#298=CARTESIAN_POINT('',(128.,1.56754790290861E-14,4.));
#299=CARTESIAN_POINT('Origin',(0.,0.,4.));
#300=CARTESIAN_POINT('',(128.,1.56754790290861E-14,0.));
#301=CARTESIAN_POINT('Origin',(0.,0.,0.));
#302=CARTESIAN_POINT('Origin',(0.,0.,4.));
#303=CARTESIAN_POINT('Origin',(0.,0.,0.));
#304=UNCERTAINTY_MEASURE_WITH_UNIT(LENGTH_MEASURE(0.01),#308,
'DISTANCE_ACCURACY_VALUE',
'Maximum model space distance between geometric entities at asserted c
onnectivities');
#305=UNCERTAINTY_MEASURE_WITH_UNIT(LENGTH_MEASURE(1.E-6),#308,
'DISTANCE_ACCURACY_VALUE',
'Maximum model space distance between geometric entities at asserted c
onnectivities');
#306=(
GEOMETRIC_REPRESENTATION_CONTEXT(3)
GLOBAL_UNCERTAINTY_ASSIGNED_CONTEXT((#304))
GLOBAL_UNIT_ASSIGNED_CONTEXT((#308,#311,#309))
REPRESENTATION_CONTEXT('','3D')
);
#307=(
GEOMETRIC_REPRESENTATION_CONTEXT(3)
GLOBAL_UNCERTAINTY_ASSIGNED_CONTEXT((#305))
GLOBAL_UNIT_ASSIGNED_CONTEXT((#308,#311,#309))
REPRESENTATION_CONTEXT('','3D')
);
#308=(
LENGTH_UNIT()
NAMED_UNIT(*)
SI_UNIT(.MILLI.,.METRE.)
);
#309=(
NAMED_UNIT(*)
SI_UNIT($,.STERADIAN.)
SOLID_ANGLE_UNIT()
);
#310=DIMENSIONAL_EXPONENTS(0.,0.,0.,0.,0.,0.,0.);
#311=(
CONVERSION_BASED_UNIT('degree',#313)
NAMED_UNIT(#310)
PLANE_ANGLE_UNIT()
);
#312=(
NAMED_UNIT(*)
PLANE_ANGLE_UNIT()
SI_UNIT($,.RADIAN.)
);
#313=PLANE_ANGLE_MEASURE_WITH_UNIT(PLANE_ANGLE_MEASURE(0.01745329252),#312);
#314=SHAPE_DEFINITION_REPRESENTATION(#315,#316);
#315=PRODUCT_DEFINITION_SHAPE('',$,#318);
#316=SHAPE_REPRESENTATION('',(#180),#306);
#317=PRODUCT_DEFINITION_CONTEXT('part definition',#322,'design');
#318=PRODUCT_DEFINITION('HFSMH-200','HFSMH-200',#319,#317);
#319=PRODUCT_DEFINITION_FORMATION('',$,#324);
#320=PRODUCT_RELATED_PRODUCT_CATEGORY('HFSMH-200','HFSMH-200',(#324));
#321=APPLICATION_PROTOCOL_DEFINITION('international standard',
'automotive_design',2009,#322);
#322=APPLICATION_CONTEXT(
'Core Data for Automotive Mechanical Design Process');
#323=PRODUCT_CONTEXT('part definition',#322,'mechanical');
#324=PRODUCT('HFSMH-200','HFSMH-200',$,(#323));
#325=PRESENTATION_STYLE_ASSIGNMENT((#326));
#326=SURFACE_STYLE_USAGE(.BOTH.,#327);
#327=SURFACE_SIDE_STYLE($,(#328));
#328=SURFACE_STYLE_FILL_AREA(#329);
#329=FILL_AREA_STYLE($,(#330));
#330=FILL_AREA_STYLE_COLOUR($,#331);
#331=COLOUR_RGB('',0.898039215686275,0.898039215686275,0.898039215686275);
ENDSEC;
END-ISO-10303-21;
