ISO-10303-21;
HEADER;
/* Generated by software containing ST-Developer
 * from STEP Tools, Inc. (www.steptools.com) 
 */

FILE_DESCRIPTION(
/* description */ ('Fl\X\E4ns (Spiro) '),
/* implementation_level */ '2;1');

FILE_NAME(
/* name */ 
'C:\\Vault_WS\\Designs\\CHV\\Heat\\Fl\X\E4nsar\\HFSH\\Output\\HFSH-630.
stp',
/* time_stamp */ '2016-02-10T10:06:30+01:00',
/* author */ ('John'),
/* organization */ (''),
/* preprocessor_version */ 'ST-DEVELOPER v15.6',
/* originating_system */ 'Autodesk Inventor 2015',
/* authorisation */ '');

FILE_SCHEMA (('AUTOMOTIVE_DESIGN { 1 0 10303 214 3 1 1 }'));
ENDSEC;

DATA;
#10=MECHANICAL_DESIGN_GEOMETRIC_PRESENTATION_REPRESENTATION('',(#13),#647);
#11=SHAPE_REPRESENTATION_RELATIONSHIP('SRR','None',#656,#12);
#12=ADVANCED_BREP_SHAPE_REPRESENTATION($,(#14),#646);
#13=STYLED_ITEM('',(#665),#14);
#14=MANIFOLD_SOLID_BREP('Solid3',#379);
#15=PLANE('',#435);
#16=PLANE('',#436);
#17=FACE_BOUND('',#90,.T.);
#18=FACE_BOUND('',#92,.T.);
#19=FACE_BOUND('',#94,.T.);
#20=FACE_BOUND('',#96,.T.);
#21=FACE_BOUND('',#98,.T.);
#22=FACE_BOUND('',#100,.T.);
#23=FACE_BOUND('',#102,.T.);
#24=FACE_BOUND('',#104,.T.);
#25=FACE_BOUND('',#106,.T.);
#26=FACE_BOUND('',#108,.T.);
#27=FACE_BOUND('',#110,.T.);
#28=FACE_BOUND('',#112,.T.);
#29=FACE_BOUND('',#114,.T.);
#30=FACE_BOUND('',#116,.T.);
#31=FACE_BOUND('',#118,.T.);
#32=FACE_BOUND('',#120,.T.);
#33=FACE_BOUND('',#122,.T.);
#34=FACE_BOUND('',#124,.T.);
#35=FACE_BOUND('',#126,.T.);
#36=FACE_BOUND('',#127,.T.);
#37=FACE_BOUND('',#128,.T.);
#38=FACE_BOUND('',#129,.T.);
#39=FACE_BOUND('',#130,.T.);
#40=FACE_BOUND('',#131,.T.);
#41=FACE_BOUND('',#132,.T.);
#42=FACE_BOUND('',#133,.T.);
#43=FACE_BOUND('',#134,.T.);
#44=FACE_BOUND('',#135,.T.);
#45=FACE_BOUND('',#136,.T.);
#46=FACE_BOUND('',#137,.T.);
#47=FACE_BOUND('',#138,.T.);
#48=FACE_BOUND('',#139,.T.);
#49=FACE_BOUND('',#140,.T.);
#50=FACE_BOUND('',#141,.T.);
#51=FACE_BOUND('',#142,.T.);
#52=FACE_BOUND('',#144,.T.);
#53=FACE_BOUND('',#145,.T.);
#54=FACE_BOUND('',#146,.T.);
#55=FACE_BOUND('',#147,.T.);
#56=FACE_BOUND('',#148,.T.);
#57=FACE_BOUND('',#149,.T.);
#58=FACE_BOUND('',#150,.T.);
#59=FACE_BOUND('',#151,.T.);
#60=FACE_BOUND('',#152,.T.);
#61=FACE_BOUND('',#153,.T.);
#62=FACE_BOUND('',#154,.T.);
#63=FACE_BOUND('',#155,.T.);
#64=FACE_BOUND('',#156,.T.);
#65=FACE_BOUND('',#157,.T.);
#66=FACE_BOUND('',#158,.T.);
#67=FACE_BOUND('',#159,.T.);
#68=FACE_BOUND('',#160,.T.);
#69=FACE_OUTER_BOUND('',#89,.T.);
#70=FACE_OUTER_BOUND('',#91,.T.);
#71=FACE_OUTER_BOUND('',#93,.T.);
#72=FACE_OUTER_BOUND('',#95,.T.);
#73=FACE_OUTER_BOUND('',#97,.T.);
#74=FACE_OUTER_BOUND('',#99,.T.);
#75=FACE_OUTER_BOUND('',#101,.T.);
#76=FACE_OUTER_BOUND('',#103,.T.);
#77=FACE_OUTER_BOUND('',#105,.T.);
#78=FACE_OUTER_BOUND('',#107,.T.);
#79=FACE_OUTER_BOUND('',#109,.T.);
#80=FACE_OUTER_BOUND('',#111,.T.);
#81=FACE_OUTER_BOUND('',#113,.T.);
#82=FACE_OUTER_BOUND('',#115,.T.);
#83=FACE_OUTER_BOUND('',#117,.T.);
#84=FACE_OUTER_BOUND('',#119,.T.);
#85=FACE_OUTER_BOUND('',#121,.T.);
#86=FACE_OUTER_BOUND('',#123,.T.);
#87=FACE_OUTER_BOUND('',#125,.T.);
#88=FACE_OUTER_BOUND('',#143,.T.);
#89=EDGE_LOOP('',(#269));
#90=EDGE_LOOP('',(#270));
#91=EDGE_LOOP('',(#271));
#92=EDGE_LOOP('',(#272));
#93=EDGE_LOOP('',(#273));
#94=EDGE_LOOP('',(#274));
#95=EDGE_LOOP('',(#275));
#96=EDGE_LOOP('',(#276));
#97=EDGE_LOOP('',(#277));
#98=EDGE_LOOP('',(#278));
#99=EDGE_LOOP('',(#279));
#100=EDGE_LOOP('',(#280));
#101=EDGE_LOOP('',(#281));
#102=EDGE_LOOP('',(#282));
#103=EDGE_LOOP('',(#283));
#104=EDGE_LOOP('',(#284));
#105=EDGE_LOOP('',(#285));
#106=EDGE_LOOP('',(#286));
#107=EDGE_LOOP('',(#287));
#108=EDGE_LOOP('',(#288));
#109=EDGE_LOOP('',(#289));
#110=EDGE_LOOP('',(#290));
#111=EDGE_LOOP('',(#291));
#112=EDGE_LOOP('',(#292));
#113=EDGE_LOOP('',(#293));
#114=EDGE_LOOP('',(#294));
#115=EDGE_LOOP('',(#295));
#116=EDGE_LOOP('',(#296));
#117=EDGE_LOOP('',(#297));
#118=EDGE_LOOP('',(#298));
#119=EDGE_LOOP('',(#299));
#120=EDGE_LOOP('',(#300));
#121=EDGE_LOOP('',(#301));
#122=EDGE_LOOP('',(#302));
#123=EDGE_LOOP('',(#303));
#124=EDGE_LOOP('',(#304));
#125=EDGE_LOOP('',(#305));
#126=EDGE_LOOP('',(#306));
#127=EDGE_LOOP('',(#307));
#128=EDGE_LOOP('',(#308));
#129=EDGE_LOOP('',(#309));
#130=EDGE_LOOP('',(#310));
#131=EDGE_LOOP('',(#311));
#132=EDGE_LOOP('',(#312));
#133=EDGE_LOOP('',(#313));
#134=EDGE_LOOP('',(#314));
#135=EDGE_LOOP('',(#315));
#136=EDGE_LOOP('',(#316));
#137=EDGE_LOOP('',(#317));
#138=EDGE_LOOP('',(#318));
#139=EDGE_LOOP('',(#319));
#140=EDGE_LOOP('',(#320));
#141=EDGE_LOOP('',(#321));
#142=EDGE_LOOP('',(#322));
#143=EDGE_LOOP('',(#323));
#144=EDGE_LOOP('',(#324));
#145=EDGE_LOOP('',(#325));
#146=EDGE_LOOP('',(#326));
#147=EDGE_LOOP('',(#327));
#148=EDGE_LOOP('',(#328));
#149=EDGE_LOOP('',(#329));
#150=EDGE_LOOP('',(#330));
#151=EDGE_LOOP('',(#331));
#152=EDGE_LOOP('',(#332));
#153=EDGE_LOOP('',(#333));
#154=EDGE_LOOP('',(#334));
#155=EDGE_LOOP('',(#335));
#156=EDGE_LOOP('',(#336));
#157=EDGE_LOOP('',(#337));
#158=EDGE_LOOP('',(#338));
#159=EDGE_LOOP('',(#339));
#160=EDGE_LOOP('',(#340));
#161=CIRCLE('',#382,316.25);
#162=CIRCLE('',#383,316.25);
#163=CIRCLE('',#385,6.);
#164=CIRCLE('',#386,6.);
#165=CIRCLE('',#388,6.);
#166=CIRCLE('',#389,6.);
#167=CIRCLE('',#391,6.);
#168=CIRCLE('',#392,6.);
#169=CIRCLE('',#394,6.);
#170=CIRCLE('',#395,6.);
#171=CIRCLE('',#397,6.);
#172=CIRCLE('',#398,6.);
#173=CIRCLE('',#400,6.);
#174=CIRCLE('',#401,6.);
#175=CIRCLE('',#403,6.);
#176=CIRCLE('',#404,6.);
#177=CIRCLE('',#406,6.);
#178=CIRCLE('',#407,6.);
#179=CIRCLE('',#409,6.);
#180=CIRCLE('',#410,6.);
#181=CIRCLE('',#412,6.);
#182=CIRCLE('',#413,6.);
#183=CIRCLE('',#415,6.);
#184=CIRCLE('',#416,6.);
#185=CIRCLE('',#418,6.);
#186=CIRCLE('',#419,6.);
#187=CIRCLE('',#421,6.);
#188=CIRCLE('',#422,6.);
#189=CIRCLE('',#424,6.);
#190=CIRCLE('',#425,6.);
#191=CIRCLE('',#427,6.);
#192=CIRCLE('',#428,6.);
#193=CIRCLE('',#430,6.);
#194=CIRCLE('',#431,6.);
#195=CIRCLE('',#433,354.5);
#196=CIRCLE('',#434,354.5);
#197=VERTEX_POINT('',#553);
#198=VERTEX_POINT('',#555);
#199=VERTEX_POINT('',#558);
#200=VERTEX_POINT('',#560);
#201=VERTEX_POINT('',#563);
#202=VERTEX_POINT('',#565);
#203=VERTEX_POINT('',#568);
#204=VERTEX_POINT('',#570);
#205=VERTEX_POINT('',#573);
#206=VERTEX_POINT('',#575);
#207=VERTEX_POINT('',#578);
#208=VERTEX_POINT('',#580);
#209=VERTEX_POINT('',#583);
#210=VERTEX_POINT('',#585);
#211=VERTEX_POINT('',#588);
#212=VERTEX_POINT('',#590);
#213=VERTEX_POINT('',#593);
#214=VERTEX_POINT('',#595);
#215=VERTEX_POINT('',#598);
#216=VERTEX_POINT('',#600);
#217=VERTEX_POINT('',#603);
#218=VERTEX_POINT('',#605);
#219=VERTEX_POINT('',#608);
#220=VERTEX_POINT('',#610);
#221=VERTEX_POINT('',#613);
#222=VERTEX_POINT('',#615);
#223=VERTEX_POINT('',#618);
#224=VERTEX_POINT('',#620);
#225=VERTEX_POINT('',#623);
#226=VERTEX_POINT('',#625);
#227=VERTEX_POINT('',#628);
#228=VERTEX_POINT('',#630);
#229=VERTEX_POINT('',#633);
#230=VERTEX_POINT('',#635);
#231=VERTEX_POINT('',#638);
#232=VERTEX_POINT('',#640);
#233=EDGE_CURVE('',#197,#197,#161,.T.);
#234=EDGE_CURVE('',#198,#198,#162,.T.);
#235=EDGE_CURVE('',#199,#199,#163,.T.);
#236=EDGE_CURVE('',#200,#200,#164,.T.);
#237=EDGE_CURVE('',#201,#201,#165,.T.);
#238=EDGE_CURVE('',#202,#202,#166,.T.);
#239=EDGE_CURVE('',#203,#203,#167,.T.);
#240=EDGE_CURVE('',#204,#204,#168,.T.);
#241=EDGE_CURVE('',#205,#205,#169,.T.);
#242=EDGE_CURVE('',#206,#206,#170,.T.);
#243=EDGE_CURVE('',#207,#207,#171,.T.);
#244=EDGE_CURVE('',#208,#208,#172,.T.);
#245=EDGE_CURVE('',#209,#209,#173,.T.);
#246=EDGE_CURVE('',#210,#210,#174,.T.);
#247=EDGE_CURVE('',#211,#211,#175,.T.);
#248=EDGE_CURVE('',#212,#212,#176,.T.);
#249=EDGE_CURVE('',#213,#213,#177,.T.);
#250=EDGE_CURVE('',#214,#214,#178,.T.);
#251=EDGE_CURVE('',#215,#215,#179,.T.);
#252=EDGE_CURVE('',#216,#216,#180,.T.);
#253=EDGE_CURVE('',#217,#217,#181,.T.);
#254=EDGE_CURVE('',#218,#218,#182,.T.);
#255=EDGE_CURVE('',#219,#219,#183,.T.);
#256=EDGE_CURVE('',#220,#220,#184,.T.);
#257=EDGE_CURVE('',#221,#221,#185,.T.);
#258=EDGE_CURVE('',#222,#222,#186,.T.);
#259=EDGE_CURVE('',#223,#223,#187,.T.);
#260=EDGE_CURVE('',#224,#224,#188,.T.);
#261=EDGE_CURVE('',#225,#225,#189,.T.);
#262=EDGE_CURVE('',#226,#226,#190,.T.);
#263=EDGE_CURVE('',#227,#227,#191,.T.);
#264=EDGE_CURVE('',#228,#228,#192,.T.);
#265=EDGE_CURVE('',#229,#229,#193,.T.);
#266=EDGE_CURVE('',#230,#230,#194,.T.);
#267=EDGE_CURVE('',#231,#231,#195,.T.);
#268=EDGE_CURVE('',#232,#232,#196,.T.);
#269=ORIENTED_EDGE('',*,*,#233,.F.);
#270=ORIENTED_EDGE('',*,*,#234,.F.);
#271=ORIENTED_EDGE('',*,*,#235,.F.);
#272=ORIENTED_EDGE('',*,*,#236,.F.);
#273=ORIENTED_EDGE('',*,*,#237,.F.);
#274=ORIENTED_EDGE('',*,*,#238,.F.);
#275=ORIENTED_EDGE('',*,*,#239,.F.);
#276=ORIENTED_EDGE('',*,*,#240,.F.);
#277=ORIENTED_EDGE('',*,*,#241,.F.);
#278=ORIENTED_EDGE('',*,*,#242,.F.);
#279=ORIENTED_EDGE('',*,*,#243,.F.);
#280=ORIENTED_EDGE('',*,*,#244,.F.);
#281=ORIENTED_EDGE('',*,*,#245,.F.);
#282=ORIENTED_EDGE('',*,*,#246,.F.);
#283=ORIENTED_EDGE('',*,*,#247,.F.);
#284=ORIENTED_EDGE('',*,*,#248,.F.);
#285=ORIENTED_EDGE('',*,*,#249,.F.);
#286=ORIENTED_EDGE('',*,*,#250,.F.);
#287=ORIENTED_EDGE('',*,*,#251,.F.);
#288=ORIENTED_EDGE('',*,*,#252,.F.);
#289=ORIENTED_EDGE('',*,*,#253,.F.);
#290=ORIENTED_EDGE('',*,*,#254,.F.);
#291=ORIENTED_EDGE('',*,*,#255,.F.);
#292=ORIENTED_EDGE('',*,*,#256,.F.);
#293=ORIENTED_EDGE('',*,*,#257,.F.);
#294=ORIENTED_EDGE('',*,*,#258,.F.);
#295=ORIENTED_EDGE('',*,*,#259,.F.);
#296=ORIENTED_EDGE('',*,*,#260,.F.);
#297=ORIENTED_EDGE('',*,*,#261,.F.);
#298=ORIENTED_EDGE('',*,*,#262,.F.);
#299=ORIENTED_EDGE('',*,*,#263,.F.);
#300=ORIENTED_EDGE('',*,*,#264,.F.);
#301=ORIENTED_EDGE('',*,*,#265,.F.);
#302=ORIENTED_EDGE('',*,*,#266,.F.);
#303=ORIENTED_EDGE('',*,*,#267,.T.);
#304=ORIENTED_EDGE('',*,*,#268,.F.);
#305=ORIENTED_EDGE('',*,*,#267,.F.);
#306=ORIENTED_EDGE('',*,*,#233,.T.);
#307=ORIENTED_EDGE('',*,*,#235,.T.);
#308=ORIENTED_EDGE('',*,*,#237,.T.);
#309=ORIENTED_EDGE('',*,*,#239,.T.);
#310=ORIENTED_EDGE('',*,*,#241,.T.);
#311=ORIENTED_EDGE('',*,*,#243,.T.);
#312=ORIENTED_EDGE('',*,*,#245,.T.);
#313=ORIENTED_EDGE('',*,*,#247,.T.);
#314=ORIENTED_EDGE('',*,*,#249,.T.);
#315=ORIENTED_EDGE('',*,*,#251,.T.);
#316=ORIENTED_EDGE('',*,*,#253,.T.);
#317=ORIENTED_EDGE('',*,*,#255,.T.);
#318=ORIENTED_EDGE('',*,*,#257,.T.);
#319=ORIENTED_EDGE('',*,*,#259,.T.);
#320=ORIENTED_EDGE('',*,*,#261,.T.);
#321=ORIENTED_EDGE('',*,*,#263,.T.);
#322=ORIENTED_EDGE('',*,*,#265,.T.);
#323=ORIENTED_EDGE('',*,*,#268,.T.);
#324=ORIENTED_EDGE('',*,*,#234,.T.);
#325=ORIENTED_EDGE('',*,*,#236,.T.);
#326=ORIENTED_EDGE('',*,*,#238,.T.);
#327=ORIENTED_EDGE('',*,*,#240,.T.);
#328=ORIENTED_EDGE('',*,*,#242,.T.);
#329=ORIENTED_EDGE('',*,*,#244,.T.);
#330=ORIENTED_EDGE('',*,*,#246,.T.);
#331=ORIENTED_EDGE('',*,*,#248,.T.);
#332=ORIENTED_EDGE('',*,*,#250,.T.);
#333=ORIENTED_EDGE('',*,*,#252,.T.);
#334=ORIENTED_EDGE('',*,*,#254,.T.);
#335=ORIENTED_EDGE('',*,*,#256,.T.);
#336=ORIENTED_EDGE('',*,*,#258,.T.);
#337=ORIENTED_EDGE('',*,*,#260,.T.);
#338=ORIENTED_EDGE('',*,*,#262,.T.);
#339=ORIENTED_EDGE('',*,*,#264,.T.);
#340=ORIENTED_EDGE('',*,*,#266,.T.);
#341=CYLINDRICAL_SURFACE('',#381,316.25);
#342=CYLINDRICAL_SURFACE('',#384,6.);
#343=CYLINDRICAL_SURFACE('',#387,6.);
#344=CYLINDRICAL_SURFACE('',#390,6.);
#345=CYLINDRICAL_SURFACE('',#393,6.);
#346=CYLINDRICAL_SURFACE('',#396,6.);
#347=CYLINDRICAL_SURFACE('',#399,6.);
#348=CYLINDRICAL_SURFACE('',#402,6.);
#349=CYLINDRICAL_SURFACE('',#405,6.);
#350=CYLINDRICAL_SURFACE('',#408,6.);
#351=CYLINDRICAL_SURFACE('',#411,6.);
#352=CYLINDRICAL_SURFACE('',#414,6.);
#353=CYLINDRICAL_SURFACE('',#417,6.);
#354=CYLINDRICAL_SURFACE('',#420,6.);
#355=CYLINDRICAL_SURFACE('',#423,6.);
#356=CYLINDRICAL_SURFACE('',#426,6.);
#357=CYLINDRICAL_SURFACE('',#429,6.);
#358=CYLINDRICAL_SURFACE('',#432,354.5);
#359=ADVANCED_FACE('',(#69,#17),#341,.F.);
#360=ADVANCED_FACE('',(#70,#18),#342,.F.);
#361=ADVANCED_FACE('',(#71,#19),#343,.F.);
#362=ADVANCED_FACE('',(#72,#20),#344,.F.);
#363=ADVANCED_FACE('',(#73,#21),#345,.F.);
#364=ADVANCED_FACE('',(#74,#22),#346,.F.);
#365=ADVANCED_FACE('',(#75,#23),#347,.F.);
#366=ADVANCED_FACE('',(#76,#24),#348,.F.);
#367=ADVANCED_FACE('',(#77,#25),#349,.F.);
#368=ADVANCED_FACE('',(#78,#26),#350,.F.);
#369=ADVANCED_FACE('',(#79,#27),#351,.F.);
#370=ADVANCED_FACE('',(#80,#28),#352,.F.);
#371=ADVANCED_FACE('',(#81,#29),#353,.F.);
#372=ADVANCED_FACE('',(#82,#30),#354,.F.);
#373=ADVANCED_FACE('',(#83,#31),#355,.F.);
#374=ADVANCED_FACE('',(#84,#32),#356,.F.);
#375=ADVANCED_FACE('',(#85,#33),#357,.F.);
#376=ADVANCED_FACE('',(#86,#34),#358,.T.);
#377=ADVANCED_FACE('',(#87,#35,#36,#37,#38,#39,#40,#41,#42,#43,#44,#45,
#46,#47,#48,#49,#50,#51),#15,.F.);
#378=ADVANCED_FACE('',(#88,#52,#53,#54,#55,#56,#57,#58,#59,#60,#61,#62,
#63,#64,#65,#66,#67,#68),#16,.T.);
#379=CLOSED_SHELL('',(#359,#360,#361,#362,#363,#364,#365,#366,#367,#368,
#369,#370,#371,#372,#373,#374,#375,#376,#377,#378));
#380=AXIS2_PLACEMENT_3D('placement',#551,#437,#438);
#381=AXIS2_PLACEMENT_3D('',#552,#439,#440);
#382=AXIS2_PLACEMENT_3D('',#554,#441,#442);
#383=AXIS2_PLACEMENT_3D('',#556,#443,#444);
#384=AXIS2_PLACEMENT_3D('',#557,#445,#446);
#385=AXIS2_PLACEMENT_3D('',#559,#447,#448);
#386=AXIS2_PLACEMENT_3D('',#561,#449,#450);
#387=AXIS2_PLACEMENT_3D('',#562,#451,#452);
#388=AXIS2_PLACEMENT_3D('',#564,#453,#454);
#389=AXIS2_PLACEMENT_3D('',#566,#455,#456);
#390=AXIS2_PLACEMENT_3D('',#567,#457,#458);
#391=AXIS2_PLACEMENT_3D('',#569,#459,#460);
#392=AXIS2_PLACEMENT_3D('',#571,#461,#462);
#393=AXIS2_PLACEMENT_3D('',#572,#463,#464);
#394=AXIS2_PLACEMENT_3D('',#574,#465,#466);
#395=AXIS2_PLACEMENT_3D('',#576,#467,#468);
#396=AXIS2_PLACEMENT_3D('',#577,#469,#470);
#397=AXIS2_PLACEMENT_3D('',#579,#471,#472);
#398=AXIS2_PLACEMENT_3D('',#581,#473,#474);
#399=AXIS2_PLACEMENT_3D('',#582,#475,#476);
#400=AXIS2_PLACEMENT_3D('',#584,#477,#478);
#401=AXIS2_PLACEMENT_3D('',#586,#479,#480);
#402=AXIS2_PLACEMENT_3D('',#587,#481,#482);
#403=AXIS2_PLACEMENT_3D('',#589,#483,#484);
#404=AXIS2_PLACEMENT_3D('',#591,#485,#486);
#405=AXIS2_PLACEMENT_3D('',#592,#487,#488);
#406=AXIS2_PLACEMENT_3D('',#594,#489,#490);
#407=AXIS2_PLACEMENT_3D('',#596,#491,#492);
#408=AXIS2_PLACEMENT_3D('',#597,#493,#494);
#409=AXIS2_PLACEMENT_3D('',#599,#495,#496);
#410=AXIS2_PLACEMENT_3D('',#601,#497,#498);
#411=AXIS2_PLACEMENT_3D('',#602,#499,#500);
#412=AXIS2_PLACEMENT_3D('',#604,#501,#502);
#413=AXIS2_PLACEMENT_3D('',#606,#503,#504);
#414=AXIS2_PLACEMENT_3D('',#607,#505,#506);
#415=AXIS2_PLACEMENT_3D('',#609,#507,#508);
#416=AXIS2_PLACEMENT_3D('',#611,#509,#510);
#417=AXIS2_PLACEMENT_3D('',#612,#511,#512);
#418=AXIS2_PLACEMENT_3D('',#614,#513,#514);
#419=AXIS2_PLACEMENT_3D('',#616,#515,#516);
#420=AXIS2_PLACEMENT_3D('',#617,#517,#518);
#421=AXIS2_PLACEMENT_3D('',#619,#519,#520);
#422=AXIS2_PLACEMENT_3D('',#621,#521,#522);
#423=AXIS2_PLACEMENT_3D('',#622,#523,#524);
#424=AXIS2_PLACEMENT_3D('',#624,#525,#526);
#425=AXIS2_PLACEMENT_3D('',#626,#527,#528);
#426=AXIS2_PLACEMENT_3D('',#627,#529,#530);
#427=AXIS2_PLACEMENT_3D('',#629,#531,#532);
#428=AXIS2_PLACEMENT_3D('',#631,#533,#534);
#429=AXIS2_PLACEMENT_3D('',#632,#535,#536);
#430=AXIS2_PLACEMENT_3D('',#634,#537,#538);
#431=AXIS2_PLACEMENT_3D('',#636,#539,#540);
#432=AXIS2_PLACEMENT_3D('',#637,#541,#542);
#433=AXIS2_PLACEMENT_3D('',#639,#543,#544);
#434=AXIS2_PLACEMENT_3D('',#641,#545,#546);
#435=AXIS2_PLACEMENT_3D('',#642,#547,#548);
#436=AXIS2_PLACEMENT_3D('',#643,#549,#550);
#437=DIRECTION('axis',(0.,0.,1.));
#438=DIRECTION('refdir',(1.,0.,0.));
#439=DIRECTION('center_axis',(0.,0.,1.));
#440=DIRECTION('ref_axis',(-1.,0.,0.));
#441=DIRECTION('center_axis',(0.,0.,-1.));
#442=DIRECTION('ref_axis',(-1.,0.,0.));
#443=DIRECTION('center_axis',(0.,0.,1.));
#444=DIRECTION('ref_axis',(-1.,0.,0.));
#445=DIRECTION('center_axis',(0.,0.,1.));
#446=DIRECTION('ref_axis',(-1.,0.,0.));
#447=DIRECTION('center_axis',(0.,0.,-1.));
#448=DIRECTION('ref_axis',(-1.,0.,0.));
#449=DIRECTION('center_axis',(0.,0.,1.));
#450=DIRECTION('ref_axis',(-1.,0.,0.));
#451=DIRECTION('center_axis',(0.,0.,1.));
#452=DIRECTION('ref_axis',(-1.,0.,0.));
#453=DIRECTION('center_axis',(0.,0.,-1.));
#454=DIRECTION('ref_axis',(-1.,0.,0.));
#455=DIRECTION('center_axis',(0.,0.,1.));
#456=DIRECTION('ref_axis',(-1.,0.,0.));
#457=DIRECTION('center_axis',(0.,0.,1.));
#458=DIRECTION('ref_axis',(-1.,0.,0.));
#459=DIRECTION('center_axis',(0.,0.,-1.));
#460=DIRECTION('ref_axis',(-1.,0.,0.));
#461=DIRECTION('center_axis',(0.,0.,1.));
#462=DIRECTION('ref_axis',(-1.,0.,0.));
#463=DIRECTION('center_axis',(0.,0.,1.));
#464=DIRECTION('ref_axis',(-1.,0.,0.));
#465=DIRECTION('center_axis',(0.,0.,-1.));
#466=DIRECTION('ref_axis',(-1.,0.,0.));
#467=DIRECTION('center_axis',(0.,0.,1.));
#468=DIRECTION('ref_axis',(-1.,0.,0.));
#469=DIRECTION('center_axis',(0.,0.,1.));
#470=DIRECTION('ref_axis',(-1.,0.,0.));
#471=DIRECTION('center_axis',(0.,0.,-1.));
#472=DIRECTION('ref_axis',(-1.,0.,0.));
#473=DIRECTION('center_axis',(0.,0.,1.));
#474=DIRECTION('ref_axis',(-1.,0.,0.));
#475=DIRECTION('center_axis',(0.,0.,1.));
#476=DIRECTION('ref_axis',(-1.,0.,0.));
#477=DIRECTION('center_axis',(0.,0.,-1.));
#478=DIRECTION('ref_axis',(-1.,0.,0.));
#479=DIRECTION('center_axis',(0.,0.,1.));
#480=DIRECTION('ref_axis',(-1.,0.,0.));
#481=DIRECTION('center_axis',(0.,0.,1.));
#482=DIRECTION('ref_axis',(-1.,0.,0.));
#483=DIRECTION('center_axis',(0.,0.,-1.));
#484=DIRECTION('ref_axis',(-1.,0.,0.));
#485=DIRECTION('center_axis',(0.,0.,1.));
#486=DIRECTION('ref_axis',(-1.,0.,0.));
#487=DIRECTION('center_axis',(0.,0.,1.));
#488=DIRECTION('ref_axis',(-1.,0.,0.));
#489=DIRECTION('center_axis',(0.,0.,-1.));
#490=DIRECTION('ref_axis',(-1.,0.,0.));
#491=DIRECTION('center_axis',(0.,0.,1.));
#492=DIRECTION('ref_axis',(-1.,0.,0.));
#493=DIRECTION('center_axis',(0.,0.,1.));
#494=DIRECTION('ref_axis',(-1.,0.,0.));
#495=DIRECTION('center_axis',(0.,0.,-1.));
#496=DIRECTION('ref_axis',(-1.,0.,0.));
#497=DIRECTION('center_axis',(0.,0.,1.));
#498=DIRECTION('ref_axis',(-1.,0.,0.));
#499=DIRECTION('center_axis',(0.,0.,1.));
#500=DIRECTION('ref_axis',(-1.,0.,0.));
#501=DIRECTION('center_axis',(0.,0.,-1.));
#502=DIRECTION('ref_axis',(-1.,0.,0.));
#503=DIRECTION('center_axis',(0.,0.,1.));
#504=DIRECTION('ref_axis',(-1.,0.,0.));
#505=DIRECTION('center_axis',(0.,0.,1.));
#506=DIRECTION('ref_axis',(-1.,0.,0.));
#507=DIRECTION('center_axis',(0.,0.,-1.));
#508=DIRECTION('ref_axis',(-1.,0.,0.));
#509=DIRECTION('center_axis',(0.,0.,1.));
#510=DIRECTION('ref_axis',(-1.,0.,0.));
#511=DIRECTION('center_axis',(0.,0.,1.));
#512=DIRECTION('ref_axis',(-1.,0.,0.));
#513=DIRECTION('center_axis',(0.,0.,-1.));
#514=DIRECTION('ref_axis',(-1.,0.,0.));
#515=DIRECTION('center_axis',(0.,0.,1.));
#516=DIRECTION('ref_axis',(-1.,0.,0.));
#517=DIRECTION('center_axis',(0.,0.,1.));
#518=DIRECTION('ref_axis',(-1.,0.,0.));
#519=DIRECTION('center_axis',(0.,0.,-1.));
#520=DIRECTION('ref_axis',(-1.,0.,0.));
#521=DIRECTION('center_axis',(0.,0.,1.));
#522=DIRECTION('ref_axis',(-1.,0.,0.));
#523=DIRECTION('center_axis',(0.,0.,1.));
#524=DIRECTION('ref_axis',(-1.,0.,0.));
#525=DIRECTION('center_axis',(0.,0.,-1.));
#526=DIRECTION('ref_axis',(-1.,0.,0.));
#527=DIRECTION('center_axis',(0.,0.,1.));
#528=DIRECTION('ref_axis',(-1.,0.,0.));
#529=DIRECTION('center_axis',(0.,0.,1.));
#530=DIRECTION('ref_axis',(-1.,0.,0.));
#531=DIRECTION('center_axis',(0.,0.,-1.));
#532=DIRECTION('ref_axis',(-1.,0.,0.));
#533=DIRECTION('center_axis',(0.,0.,1.));
#534=DIRECTION('ref_axis',(-1.,0.,0.));
#535=DIRECTION('center_axis',(0.,0.,1.));
#536=DIRECTION('ref_axis',(-1.,0.,0.));
#537=DIRECTION('center_axis',(0.,0.,-1.));
#538=DIRECTION('ref_axis',(-1.,0.,0.));
#539=DIRECTION('center_axis',(0.,0.,1.));
#540=DIRECTION('ref_axis',(-1.,0.,0.));
#541=DIRECTION('center_axis',(0.,0.,1.));
#542=DIRECTION('ref_axis',(-1.,0.,0.));
#543=DIRECTION('center_axis',(0.,0.,-1.));
#544=DIRECTION('ref_axis',(-1.,0.,0.));
#545=DIRECTION('center_axis',(0.,0.,-1.));
#546=DIRECTION('ref_axis',(-1.,0.,0.));
#547=DIRECTION('center_axis',(0.,0.,-1.));
#548=DIRECTION('ref_axis',(-1.,0.,0.));
#549=DIRECTION('center_axis',(0.,0.,-1.));
#550=DIRECTION('ref_axis',(-1.,0.,0.));
#551=CARTESIAN_POINT('',(0.,0.,0.));
#552=CARTESIAN_POINT('Origin',(0.,0.,0.));
#553=CARTESIAN_POINT('',(316.25,3.8729455023035E-14,4.));
#554=CARTESIAN_POINT('Origin',(0.,0.,4.));
#555=CARTESIAN_POINT('',(316.25,3.8729455023035E-14,0.));
#556=CARTESIAN_POINT('Origin',(0.,0.,0.));
#557=CARTESIAN_POINT('Origin',(128.964316707035,311.347402456304,0.));
#558=CARTESIAN_POINT('',(134.964316707035,311.347402456304,4.));
#559=CARTESIAN_POINT('Origin',(128.964316707035,311.347402456304,4.));
#560=CARTESIAN_POINT('',(134.964316707035,311.347402456304,0.));
#561=CARTESIAN_POINT('Origin',(128.964316707035,311.347402456304,0.));
#562=CARTESIAN_POINT('Origin',(238.294985259867,238.294985259866,0.));
#563=CARTESIAN_POINT('',(244.294985259867,238.294985259866,4.));
#564=CARTESIAN_POINT('Origin',(238.294985259867,238.294985259866,4.));
#565=CARTESIAN_POINT('',(244.294985259867,238.294985259866,0.));
#566=CARTESIAN_POINT('Origin',(238.294985259867,238.294985259866,0.));
#567=CARTESIAN_POINT('Origin',(311.347402456304,128.964316707035,0.));
#568=CARTESIAN_POINT('',(317.347402456304,128.964316707035,4.));
#569=CARTESIAN_POINT('Origin',(311.347402456304,128.964316707035,4.));
#570=CARTESIAN_POINT('',(317.347402456304,128.964316707035,0.));
#571=CARTESIAN_POINT('Origin',(311.347402456304,128.964316707035,0.));
#572=CARTESIAN_POINT('Origin',(337.,-6.19058956968987E-14,0.));
#573=CARTESIAN_POINT('',(343.,-6.11711076174103E-14,4.));
#574=CARTESIAN_POINT('Origin',(337.,-6.19058956968987E-14,4.));
#575=CARTESIAN_POINT('',(343.,-6.11711076174103E-14,0.));
#576=CARTESIAN_POINT('Origin',(337.,-6.19058956968987E-14,0.));
#577=CARTESIAN_POINT('Origin',(311.347402456304,-128.964316707035,0.));
#578=CARTESIAN_POINT('',(317.347402456304,-128.964316707035,4.));
#579=CARTESIAN_POINT('Origin',(311.347402456304,-128.964316707035,4.));
#580=CARTESIAN_POINT('',(317.347402456304,-128.964316707035,0.));
#581=CARTESIAN_POINT('Origin',(311.347402456304,-128.964316707035,0.));
#582=CARTESIAN_POINT('Origin',(238.294985259867,-238.294985259867,0.));
#583=CARTESIAN_POINT('',(244.294985259867,-238.294985259867,4.));
#584=CARTESIAN_POINT('Origin',(238.294985259867,-238.294985259867,4.));
#585=CARTESIAN_POINT('',(244.294985259867,-238.294985259867,0.));
#586=CARTESIAN_POINT('Origin',(238.294985259867,-238.294985259867,0.));
#587=CARTESIAN_POINT('Origin',(128.964316707035,-311.347402456304,0.));
#588=CARTESIAN_POINT('',(134.964316707035,-311.347402456304,4.));
#589=CARTESIAN_POINT('Origin',(128.964316707035,-311.347402456304,4.));
#590=CARTESIAN_POINT('',(134.964316707035,-311.347402456304,0.));
#591=CARTESIAN_POINT('Origin',(128.964316707035,-311.347402456304,0.));
#592=CARTESIAN_POINT('Origin',(-4.12705971312658E-14,-337.,0.));
#593=CARTESIAN_POINT('',(5.99999999999996,-337.,4.));
#594=CARTESIAN_POINT('Origin',(-4.12705971312658E-14,-337.,4.));
#595=CARTESIAN_POINT('',(5.99999999999996,-337.,0.));
#596=CARTESIAN_POINT('Origin',(-4.12705971312658E-14,-337.,0.));
#597=CARTESIAN_POINT('Origin',(-128.964316707035,-311.347402456304,0.));
#598=CARTESIAN_POINT('',(-122.964316707035,-311.347402456304,4.));
#599=CARTESIAN_POINT('Origin',(-128.964316707035,-311.347402456304,4.));
#600=CARTESIAN_POINT('',(-122.964316707035,-311.347402456304,0.));
#601=CARTESIAN_POINT('Origin',(-128.964316707035,-311.347402456304,0.));
#602=CARTESIAN_POINT('Origin',(-238.294985259867,-238.294985259867,0.));
#603=CARTESIAN_POINT('',(-232.294985259867,-238.294985259867,4.));
#604=CARTESIAN_POINT('Origin',(-238.294985259867,-238.294985259867,4.));
#605=CARTESIAN_POINT('',(-232.294985259867,-238.294985259867,0.));
#606=CARTESIAN_POINT('Origin',(-238.294985259867,-238.294985259867,0.));
#607=CARTESIAN_POINT('Origin',(-311.347402456304,-128.964316707035,0.));
#608=CARTESIAN_POINT('',(-305.347402456304,-128.964316707035,4.));
#609=CARTESIAN_POINT('Origin',(-311.347402456304,-128.964316707035,4.));
#610=CARTESIAN_POINT('',(-305.347402456304,-128.964316707035,0.));
#611=CARTESIAN_POINT('Origin',(-311.347402456304,-128.964316707035,0.));
#612=CARTESIAN_POINT('Origin',(-337.,2.06352985656329E-14,0.));
#613=CARTESIAN_POINT('',(-331.,2.13700866451213E-14,4.));
#614=CARTESIAN_POINT('Origin',(-337.,2.06352985656329E-14,4.));
#615=CARTESIAN_POINT('',(-331.,2.13700866451213E-14,0.));
#616=CARTESIAN_POINT('Origin',(-337.,2.06352985656329E-14,0.));
#617=CARTESIAN_POINT('Origin',(-311.347402456304,128.964316707035,0.));
#618=CARTESIAN_POINT('',(-305.347402456304,128.964316707035,4.));
#619=CARTESIAN_POINT('Origin',(-311.347402456304,128.964316707035,4.));
#620=CARTESIAN_POINT('',(-305.347402456304,128.964316707035,0.));
#621=CARTESIAN_POINT('Origin',(-311.347402456304,128.964316707035,0.));
#622=CARTESIAN_POINT('Origin',(-238.294985259867,238.294985259867,0.));
#623=CARTESIAN_POINT('',(-232.294985259867,238.294985259867,4.));
#624=CARTESIAN_POINT('Origin',(-238.294985259867,238.294985259867,4.));
#625=CARTESIAN_POINT('',(-232.294985259867,238.294985259867,0.));
#626=CARTESIAN_POINT('Origin',(-238.294985259867,238.294985259867,0.));
#627=CARTESIAN_POINT('Origin',(-128.964316707035,311.347402456304,0.));
#628=CARTESIAN_POINT('',(-122.964316707035,311.347402456304,4.));
#629=CARTESIAN_POINT('Origin',(-128.964316707035,311.347402456304,4.));
#630=CARTESIAN_POINT('',(-122.964316707035,311.347402456304,0.));
#631=CARTESIAN_POINT('Origin',(-128.964316707035,311.347402456304,0.));
#632=CARTESIAN_POINT('Origin',(0.,337.,0.));
#633=CARTESIAN_POINT('',(6.,337.,4.));
#634=CARTESIAN_POINT('Origin',(0.,337.,4.));
#635=CARTESIAN_POINT('',(6.,337.,0.));
#636=CARTESIAN_POINT('Origin',(0.,337.,0.));
#637=CARTESIAN_POINT('Origin',(0.,0.,0.));
#638=CARTESIAN_POINT('',(354.5,4.34137290297737E-14,4.));
#639=CARTESIAN_POINT('Origin',(0.,0.,4.));
#640=CARTESIAN_POINT('',(354.5,4.34137290297737E-14,0.));
#641=CARTESIAN_POINT('Origin',(0.,0.,0.));
#642=CARTESIAN_POINT('Origin',(0.,0.,4.));
#643=CARTESIAN_POINT('Origin',(0.,0.,0.));
#644=UNCERTAINTY_MEASURE_WITH_UNIT(LENGTH_MEASURE(0.01),#648,
'DISTANCE_ACCURACY_VALUE',
'Maximum model space distance between geometric entities at asserted c
onnectivities');
#645=UNCERTAINTY_MEASURE_WITH_UNIT(LENGTH_MEASURE(1.E-6),#648,
'DISTANCE_ACCURACY_VALUE',
'Maximum model space distance between geometric entities at asserted c
onnectivities');
#646=(
GEOMETRIC_REPRESENTATION_CONTEXT(3)
GLOBAL_UNCERTAINTY_ASSIGNED_CONTEXT((#644))
GLOBAL_UNIT_ASSIGNED_CONTEXT((#648,#651,#649))
REPRESENTATION_CONTEXT('','3D')
);
#647=(
GEOMETRIC_REPRESENTATION_CONTEXT(3)
GLOBAL_UNCERTAINTY_ASSIGNED_CONTEXT((#645))
GLOBAL_UNIT_ASSIGNED_CONTEXT((#648,#651,#649))
REPRESENTATION_CONTEXT('','3D')
);
#648=(
LENGTH_UNIT()
NAMED_UNIT(*)
SI_UNIT(.MILLI.,.METRE.)
);
#649=(
NAMED_UNIT(*)
SI_UNIT($,.STERADIAN.)
SOLID_ANGLE_UNIT()
);
#650=DIMENSIONAL_EXPONENTS(0.,0.,0.,0.,0.,0.,0.);
#651=(
CONVERSION_BASED_UNIT('degree',#653)
NAMED_UNIT(#650)
PLANE_ANGLE_UNIT()
);
#652=(
NAMED_UNIT(*)
PLANE_ANGLE_UNIT()
SI_UNIT($,.RADIAN.)
);
#653=PLANE_ANGLE_MEASURE_WITH_UNIT(PLANE_ANGLE_MEASURE(0.01745329252),#652);
#654=SHAPE_DEFINITION_REPRESENTATION(#655,#656);
#655=PRODUCT_DEFINITION_SHAPE('',$,#658);
#656=SHAPE_REPRESENTATION('',(#380),#646);
#657=PRODUCT_DEFINITION_CONTEXT('part definition',#662,'design');
#658=PRODUCT_DEFINITION('HFSH-630','HFSH-630',#659,#657);
#659=PRODUCT_DEFINITION_FORMATION('',$,#664);
#660=PRODUCT_RELATED_PRODUCT_CATEGORY('HFSH-630','HFSH-630',(#664));
#661=APPLICATION_PROTOCOL_DEFINITION('international standard',
'automotive_design',2009,#662);
#662=APPLICATION_CONTEXT(
'Core Data for Automotive Mechanical Design Process');
#663=PRODUCT_CONTEXT('part definition',#662,'mechanical');
#664=PRODUCT('HFSH-630','HFSH-630',$,(#663));
#665=PRESENTATION_STYLE_ASSIGNMENT((#666));
#666=SURFACE_STYLE_USAGE(.BOTH.,#667);
#667=SURFACE_SIDE_STYLE($,(#668));
#668=SURFACE_STYLE_FILL_AREA(#669);
#669=FILL_AREA_STYLE($,(#670));
#670=FILL_AREA_STYLE_COLOUR($,#671);
#671=COLOUR_RGB('',0.898039215686275,0.898039215686275,0.898039215686275);
ENDSEC;
END-ISO-10303-21;
