ISO-10303-21;
HEADER;
/****************************************************************
 * Generated by software with PDElib inside                    *
 * PDElib Version v51a, created Wed 11/30/2011                  *
 * ITI Transcendata (http://www.transcendata.com/)              *
 ****************************************************************/
FILE_DESCRIPTION((''),'2;1');
FILE_NAME('C:\\Vault_WS\\Designs\\CQC_ConvertFile\\Output\\HINT-FE-014.stp','2014-03-06T08:26:52',(''),(''),'Autodesk Inventor 2013','Autodesk Inventor 2013','');
FILE_SCHEMA(('AUTOMOTIVE_DESIGN { 1 2 10303 214 0 1 1 1 }'));
ENDSEC;
DATA;
#5=APPLICATION_CONTEXT('automotive design');
#6=APPLICATION_PROTOCOL_DEFINITION('Draft International Standard','automotive_design',1998,#5);
#7=PRODUCT_CONTEXT('None',#5,'mechanical');
#8=PRODUCT('HINT-FE-014','HINT-FE-014','None',(#7));
#9=PRODUCT_RELATED_PRODUCT_CATEGORY('part','description',(#8));
#10=PRODUCT_DEFINITION_FORMATION('None','None',#8);
#11=PRODUCT_DEFINITION_CONTEXT('part definition',#5,'design');
#12=PRODUCT_DEFINITION('None','None',#10,#11);
#18=(NAMED_UNIT(*)PLANE_ANGLE_UNIT()SI_UNIT($,.RADIAN.));
#19=DIMENSIONAL_EXPONENTS(0.0,0.0,0.0,0.0,0.0,0.0,0.0);
#20=PLANE_ANGLE_MEASURE_WITH_UNIT(PLANE_ANGLE_MEASURE(0.0174532925),#18);
#24=(CONVERSION_BASED_UNIT('DEGREE',#20)NAMED_UNIT(#19)PLANE_ANGLE_UNIT());
#28=(NAMED_UNIT(*)SI_UNIT($,.STERADIAN.)SOLID_ANGLE_UNIT());
#32=(LENGTH_UNIT()NAMED_UNIT(*)SI_UNIT(.MILLI.,.METRE.));
#34=UNCERTAINTY_MEASURE_WITH_UNIT(LENGTH_MEASURE(0.01),#32,'DISTANCE_ACCURACY_VALUE','');
#36=(GEOMETRIC_REPRESENTATION_CONTEXT(3)GLOBAL_UNCERTAINTY_ASSIGNED_CONTEXT((#34))GLOBAL_UNIT_ASSIGNED_CONTEXT((#24,#28,#32))REPRESENTATION_CONTEXT('None','None'));
#37=AXIS2_PLACEMENT_3D('',#38,#39,#40);
#38=CARTESIAN_POINT('',(0.0,0.0,0.0));
#39=DIRECTION('',(0.0,0.0,1.0));
#40=DIRECTION('',(1.0,0.0,0.0));
#41=SHAPE_REPRESENTATION('',(#37),#36);
#42=PRODUCT_DEFINITION_SHAPE('','',#12);
#43=SHAPE_DEFINITION_REPRESENTATION(#42,#41);
#49=(NAMED_UNIT(*)PLANE_ANGLE_UNIT()SI_UNIT($,.RADIAN.));
#50=DIMENSIONAL_EXPONENTS(0.0,0.0,0.0,0.0,0.0,0.0,0.0);
#51=PLANE_ANGLE_MEASURE_WITH_UNIT(PLANE_ANGLE_MEASURE(0.0174532925),#49);
#55=(CONVERSION_BASED_UNIT('DEGREE',#51)NAMED_UNIT(#50)PLANE_ANGLE_UNIT());
#59=(NAMED_UNIT(*)SI_UNIT($,.STERADIAN.)SOLID_ANGLE_UNIT());
#63=(LENGTH_UNIT()NAMED_UNIT(*)SI_UNIT(.MILLI.,.METRE.));
#65=UNCERTAINTY_MEASURE_WITH_UNIT(LENGTH_MEASURE(0.000001),#63,'DISTANCE_ACCURACY_VALUE','');
#67=(GEOMETRIC_REPRESENTATION_CONTEXT(3)GLOBAL_UNCERTAINTY_ASSIGNED_CONTEXT((#65))GLOBAL_UNIT_ASSIGNED_CONTEXT((#55,#59,#63))REPRESENTATION_CONTEXT('','3D'));
#68=CARTESIAN_POINT('',(277.99280566230487,2.000000000000068,0.0));
#69=DIRECTION('',(0.0,0.0,1.0));
#70=DIRECTION('',(0.709645772411951,-0.704558640354262,0.0));
#71=AXIS2_PLACEMENT_3D('',#68,#69,#70);
#72=CYLINDRICAL_SURFACE('',#71,2.0);
#73=CARTESIAN_POINT('',(279.99275390447968,2.014388489208701,0.5));
#74=VERTEX_POINT('',#73);
#75=CARTESIAN_POINT('',(277.99280566230487,6.755544E-014,0.5));
#76=VERTEX_POINT('',#75);
#77=CARTESIAN_POINT('',(277.99280566230487,2.000000000000068,0.5));
#78=DIRECTION('',(0.0,0.0,-1.0));
#79=DIRECTION('',(0.709645772411951,-0.704558640354262,0.0));
#80=AXIS2_PLACEMENT_3D('',#77,#78,#79);
#81=CIRCLE('',#80,2.0);
#82=EDGE_CURVE('',#74,#76,#81,.T.);
#83=ORIENTED_EDGE('',*,*,#82,.T.);
#84=CARTESIAN_POINT('',(277.99280566230487,6.755544E-014,0.0));
#85=VERTEX_POINT('',#84);
#86=CARTESIAN_POINT('',(277.99280566230487,6.744605E-014,0.5));
#87=DIRECTION('',(0.0,0.0,-1.0));
#88=VECTOR('',#87,0.5);
#89=LINE('',#86,#88);
#90=EDGE_CURVE('',#76,#85,#89,.T.);
#91=ORIENTED_EDGE('',*,*,#90,.T.);
#92=CARTESIAN_POINT('',(279.99275390447968,2.014388489208701,0.0));
#93=VERTEX_POINT('',#92);
#94=CARTESIAN_POINT('',(277.99280566230487,2.000000000000068,0.0));
#95=DIRECTION('',(0.0,0.0,1.0));
#96=DIRECTION('',(0.709645772411951,-0.704558640354262,0.0));
#97=AXIS2_PLACEMENT_3D('',#94,#95,#96);
#98=CIRCLE('',#97,2.0);
#99=EDGE_CURVE('',#85,#93,#98,.T.);
#100=ORIENTED_EDGE('',*,*,#99,.T.);
#101=CARTESIAN_POINT('',(279.99275390447968,2.014388489208701,0.0));
#102=DIRECTION('',(0.0,0.0,1.0));
#103=VECTOR('',#102,0.5);
#104=LINE('',#101,#103);
#105=EDGE_CURVE('',#93,#74,#104,.T.);
#106=ORIENTED_EDGE('',*,*,#105,.T.);
#107=EDGE_LOOP('',(#83,#91,#100,#106));
#108=FACE_OUTER_BOUND('',#107,.T.);
#109=ADVANCED_FACE('',(#108),#72,.T.);
#110=CARTESIAN_POINT('',(254.99999999999994,7.105427E-014,0.0));
#111=DIRECTION('',(0.0,-1.0,0.0));
#112=DIRECTION('',(0.0,0.0,-1.0));
#113=AXIS2_PLACEMENT_3D('',#110,#111,#112);
#114=PLANE('',#113);
#115=ORIENTED_EDGE('',*,*,#90,.F.);
#116=CARTESIAN_POINT('',(230.69685577117482,7.475250E-014,0.5));
#117=VERTEX_POINT('',#116);
#118=CARTESIAN_POINT('',(277.99280566230487,6.755544E-014,0.5));
#119=DIRECTION('',(-1.0,0.0,0.0));
#120=VECTOR('',#119,47.295949891130022);
#121=LINE('',#118,#120);
#122=EDGE_CURVE('',#76,#117,#121,.T.);
#123=ORIENTED_EDGE('',*,*,#122,.T.);
#124=CARTESIAN_POINT('',(230.69685577117482,7.475250E-014,0.0));
#125=VERTEX_POINT('',#124);
#126=CARTESIAN_POINT('',(230.69685577117482,7.549517E-014,0.0));
#127=DIRECTION('',(0.0,0.0,1.0));
#128=VECTOR('',#127,0.5);
#129=LINE('',#126,#128);
#130=EDGE_CURVE('',#125,#117,#129,.T.);
#131=ORIENTED_EDGE('',*,*,#130,.F.);
#132=CARTESIAN_POINT('',(230.69685577117485,7.475250E-014,0.0));
#133=DIRECTION('',(1.0,0.0,0.0));
#134=VECTOR('',#133,47.295949891130022);
#135=LINE('',#132,#134);
#136=EDGE_CURVE('',#125,#85,#135,.T.);
#137=ORIENTED_EDGE('',*,*,#136,.T.);
#138=EDGE_LOOP('',(#115,#123,#131,#137));
#139=FACE_OUTER_BOUND('',#138,.T.);
#140=ADVANCED_FACE('',(#139),#114,.T.);
#141=CARTESIAN_POINT('',(239.48723619587582,26.061491374560084,0.5));
#142=DIRECTION('',(0.0,0.0,1.0));
#143=DIRECTION('',(1.0,0.0,0.0));
#144=AXIS2_PLACEMENT_3D('',#141,#142,#143);
#145=PLANE('',#144);
#146=ORIENTED_EDGE('',*,*,#82,.F.);
#147=CARTESIAN_POINT('',(2.014388489208611,279.99275390447968,0.5));
#148=VERTEX_POINT('',#147);
#149=CARTESIAN_POINT('',(0.0,0.0,0.5));
#150=DIRECTION('',(0.0,0.0,-1.0));
#151=DIRECTION('',(1.0,0.0,0.0));
#152=AXIS2_PLACEMENT_3D('',#149,#150,#151);
#153=CIRCLE('',#152,280.0);
#154=EDGE_CURVE('',#148,#74,#153,.T.);
#155=ORIENTED_EDGE('',*,*,#154,.F.);
#156=CARTESIAN_POINT('',(0.0,277.99280566230487,0.5));
#157=VERTEX_POINT('',#156);
#158=CARTESIAN_POINT('',(1.999999999999977,277.99280566230487,0.5));
#159=DIRECTION('',(0.0,0.0,-1.0));
#160=DIRECTION('',(-0.704558640354257,0.709645772411955,0.0));
#161=AXIS2_PLACEMENT_3D('',#158,#159,#160);
#162=CIRCLE('',#161,2.0);
#163=EDGE_CURVE('',#157,#148,#162,.T.);
#164=ORIENTED_EDGE('',*,*,#163,.F.);
#165=CARTESIAN_POINT('',(0.0,230.69685577117491,0.5));
#166=VERTEX_POINT('',#165);
#167=CARTESIAN_POINT('',(0.0,230.69685577117491,0.5));
#168=DIRECTION('',(0.0,1.0,0.0));
#169=VECTOR('',#168,47.295949891129965);
#170=LINE('',#167,#169);
#171=EDGE_CURVE('',#166,#157,#170,.T.);
#172=ORIENTED_EDGE('',*,*,#171,.F.);
#173=CARTESIAN_POINT('',(14.226182617406987,221.63377790080841,0.5));
#174=VERTEX_POINT('',#173);
#175=CARTESIAN_POINT('',(9.999999999999995,230.69685577117491,0.5));
#176=DIRECTION('',(0.0,0.0,-1.0));
#177=DIRECTION('',(-0.537299608346823,-0.843391445812887,0.0));
#178=AXIS2_PLACEMENT_3D('',#175,#176,#177);
#179=CIRCLE('',#178,10.000000000000002);
#180=EDGE_CURVE('',#174,#166,#179,.T.);
#181=ORIENTED_EDGE('',*,*,#180,.F.);
#182=CARTESIAN_POINT('',(63.374805361584301,244.55215707418921,0.5));
#183=VERTEX_POINT('',#182);
#184=CARTESIAN_POINT('',(63.374805361584315,244.55215707418924,0.5));
#185=DIRECTION('',(-0.90630778703665,-0.422618261740699,0.0));
#186=VECTOR('',#185,54.229505083342964);
#187=LINE('',#184,#186);
#188=EDGE_CURVE('',#183,#174,#187,.T.);
#189=ORIENTED_EDGE('',*,*,#188,.F.);
#190=CARTESIAN_POINT('',(70.360211978133805,245.10087835499911,0.5));
#191=VERTEX_POINT('',#190);
#192=CARTESIAN_POINT('',(67.600987978991313,235.48907920382271,0.5));
#193=DIRECTION('',(0.0,0.0,1.0));
#194=DIRECTION('',(-0.07831128002584,0.996928956054901,0.0));
#195=AXIS2_PLACEMENT_3D('',#192,#193,#194);
#196=CIRCLE('',#195,10.000000000000002);
#197=EDGE_CURVE('',#191,#183,#196,.T.);
#198=ORIENTED_EDGE('',*,*,#197,.F.);
#199=CARTESIAN_POINT('',(245.10087835499914,70.360211978133705,0.5));
#200=VERTEX_POINT('',#199);
#201=CARTESIAN_POINT('',(0.0,0.0,0.5));
#202=DIRECTION('',(0.0,0.0,1.0));
#203=DIRECTION('',(-1.0,0.0,0.0));
#204=AXIS2_PLACEMENT_3D('',#201,#202,#203);
#205=CIRCLE('',#204,255.0);
#206=EDGE_CURVE('',#200,#191,#205,.T.);
#207=ORIENTED_EDGE('',*,*,#206,.F.);
#208=CARTESIAN_POINT('',(244.5521570741891,63.374805361584272,0.5));
#209=VERTEX_POINT('',#208);
#210=CARTESIAN_POINT('',(235.48907920382271,67.600987978991213,0.5));
#211=DIRECTION('',(0.0,0.0,1.0));
#212=DIRECTION('',(0.996928956054901,-0.078311280025837,0.0));
#213=AXIS2_PLACEMENT_3D('',#210,#211,#212);
#214=CIRCLE('',#213,9.999999999999998);
#215=EDGE_CURVE('',#209,#200,#214,.T.);
#216=ORIENTED_EDGE('',*,*,#215,.F.);
#217=CARTESIAN_POINT('',(221.63377790080833,14.226182617407073,0.5));
#218=VERTEX_POINT('',#217);
#219=CARTESIAN_POINT('',(221.63377790080835,14.226182617407083,0.5));
#220=DIRECTION('',(0.422618261740699,0.90630778703665,0.0));
#221=VECTOR('',#220,54.229505083342808);
#222=LINE('',#219,#221);
#223=EDGE_CURVE('',#218,#209,#222,.T.);
#224=ORIENTED_EDGE('',*,*,#223,.F.);
#225=CARTESIAN_POINT('',(230.69685577117482,10.000000000000075,0.5));
#226=DIRECTION('',(0.0,0.0,-1.0));
#227=DIRECTION('',(-0.843391445812886,-0.537299608346823,0.0));
#228=AXIS2_PLACEMENT_3D('',#225,#226,#227);
#229=CIRCLE('',#228,9.999999999999998);
#230=EDGE_CURVE('',#117,#218,#229,.T.);
#231=ORIENTED_EDGE('',*,*,#230,.F.);
#232=ORIENTED_EDGE('',*,*,#122,.F.);
#233=EDGE_LOOP('',(#146,#155,#164,#172,#181,#189,#198,#207,#216,#224,#231,#232));
#234=FACE_OUTER_BOUND('',#233,.T.);
#235=CARTESIAN_POINT('',(237.59999999999991,20.000000000000078,0.5));
#236=VERTEX_POINT('',#235);
#237=CARTESIAN_POINT('',(234.99999999999994,20.000000000000078,0.5));
#238=DIRECTION('',(0.0,0.0,-1.0));
#239=DIRECTION('',(-1.0,0.0,0.0));
#240=AXIS2_PLACEMENT_3D('',#237,#238,#239);
#241=CIRCLE('',#240,2.599999999999994);
#242=EDGE_CURVE('',#236,#236,#241,.T.);
#243=ORIENTED_EDGE('',*,*,#242,.T.);
#244=EDGE_LOOP('',(#243));
#245=FACE_BOUND('',#244,.T.);
#246=CARTESIAN_POINT('',(22.599999999999987,235.0,0.5));
#247=VERTEX_POINT('',#246);
#248=CARTESIAN_POINT('',(19.999999999999989,235.0,0.5));
#249=DIRECTION('',(0.0,0.0,-1.0));
#250=DIRECTION('',(-1.0,0.0,0.0));
#251=AXIS2_PLACEMENT_3D('',#248,#249,#250);
#252=CIRCLE('',#251,2.599999999999998);
#253=EDGE_CURVE('',#247,#247,#252,.T.);
#254=ORIENTED_EDGE('',*,*,#253,.T.);
#255=EDGE_LOOP('',(#254));
#256=FACE_BOUND('',#255,.T.);
#257=ADVANCED_FACE('',(#234,#245,#256),#145,.T.);
#258=CARTESIAN_POINT('',(1.999999999999977,277.99280566230487,0.0));
#259=DIRECTION('',(0.0,0.0,1.0));
#260=DIRECTION('',(-0.704558640354257,0.709645772411955,0.0));
#261=AXIS2_PLACEMENT_3D('',#258,#259,#260);
#262=CYLINDRICAL_SURFACE('',#261,2.0);
#263=ORIENTED_EDGE('',*,*,#163,.T.);
#264=CARTESIAN_POINT('',(2.014388489208611,279.99275390447968,0.0));
#265=VERTEX_POINT('',#264);
#266=CARTESIAN_POINT('',(2.01438848920861,279.99275390447968,0.5));
#267=DIRECTION('',(0.0,0.0,-1.0));
#268=VECTOR('',#267,0.5);
#269=LINE('',#266,#268);
#270=EDGE_CURVE('',#148,#265,#269,.T.);
#271=ORIENTED_EDGE('',*,*,#270,.T.);
#272=CARTESIAN_POINT('',(4.575686E-015,277.99280566230487,0.0));
#273=VERTEX_POINT('',#272);
#274=CARTESIAN_POINT('',(1.999999999999977,277.99280566230487,0.0));
#275=DIRECTION('',(0.0,0.0,1.0));
#276=DIRECTION('',(-0.704558640354257,0.709645772411955,0.0));
#277=AXIS2_PLACEMENT_3D('',#274,#275,#276);
#278=CIRCLE('',#277,2.0);
#279=EDGE_CURVE('',#265,#273,#278,.T.);
#280=ORIENTED_EDGE('',*,*,#279,.T.);
#281=CARTESIAN_POINT('',(4.440892E-015,277.99280566230487,0.0));
#282=DIRECTION('',(0.0,0.0,1.0));
#283=VECTOR('',#282,0.5);
#284=LINE('',#281,#283);
#285=EDGE_CURVE('',#273,#157,#284,.T.);
#286=ORIENTED_EDGE('',*,*,#285,.T.);
#287=EDGE_LOOP('',(#263,#271,#280,#286));
#288=FACE_OUTER_BOUND('',#287,.T.);
#289=ADVANCED_FACE('',(#288),#262,.T.);
#290=CARTESIAN_POINT('',(-7.960204E-015,215.0,0.0));
#291=DIRECTION('',(-1.0,0.0,0.0));
#292=DIRECTION('',(0.0,0.0,1.0));
#293=AXIS2_PLACEMENT_3D('',#290,#291,#292);
#294=PLANE('',#293);
#295=ORIENTED_EDGE('',*,*,#285,.F.);
#296=CARTESIAN_POINT('',(-4.836450E-015,230.69685577117491,0.0));
#297=VERTEX_POINT('',#296);
#298=CARTESIAN_POINT('',(4.575686E-015,277.99280566230487,0.0));
#299=DIRECTION('',(0.0,-1.0,0.0));
#300=VECTOR('',#299,47.295949891129965);
#301=LINE('',#298,#300);
#302=EDGE_CURVE('',#273,#297,#301,.T.);
#303=ORIENTED_EDGE('',*,*,#302,.T.);
#304=CARTESIAN_POINT('',(-4.440892E-015,230.69685577117491,0.5));
#305=DIRECTION('',(0.0,0.0,-1.0));
#306=VECTOR('',#305,0.5);
#307=LINE('',#304,#306);
#308=EDGE_CURVE('',#166,#297,#307,.T.);
#309=ORIENTED_EDGE('',*,*,#308,.F.);
#310=ORIENTED_EDGE('',*,*,#171,.T.);
#311=EDGE_LOOP('',(#295,#303,#309,#310));
#312=FACE_OUTER_BOUND('',#311,.T.);
#313=ADVANCED_FACE('',(#312),#294,.T.);
#314=CARTESIAN_POINT('',(9.999999999999995,230.69685577117491,0.0));
#315=DIRECTION('',(0.0,0.0,1.0));
#316=DIRECTION('',(-0.537299608346823,-0.843391445812887,0.0));
#317=AXIS2_PLACEMENT_3D('',#314,#315,#316);
#318=CYLINDRICAL_SURFACE('',#317,10.000000000000002);
#319=ORIENTED_EDGE('',*,*,#180,.T.);
#320=ORIENTED_EDGE('',*,*,#308,.T.);
#321=CARTESIAN_POINT('',(14.226182617406987,221.63377790080841,0.0));
#322=VERTEX_POINT('',#321);
#323=CARTESIAN_POINT('',(9.999999999999995,230.69685577117491,0.0));
#324=DIRECTION('',(0.0,0.0,1.0));
#325=DIRECTION('',(-0.537299608346823,-0.843391445812887,0.0));
#326=AXIS2_PLACEMENT_3D('',#323,#324,#325);
#327=CIRCLE('',#326,10.000000000000002);
#328=EDGE_CURVE('',#297,#322,#327,.T.);
#329=ORIENTED_EDGE('',*,*,#328,.T.);
#330=CARTESIAN_POINT('',(14.226182617406987,221.63377790080841,0.0));
#331=DIRECTION('',(0.0,0.0,1.0));
#332=VECTOR('',#331,0.5);
#333=LINE('',#330,#332);
#334=EDGE_CURVE('',#322,#174,#333,.T.);
#335=ORIENTED_EDGE('',*,*,#334,.T.);
#336=EDGE_LOOP('',(#319,#320,#329,#335));
#337=FACE_OUTER_BOUND('',#336,.T.);
#338=ADVANCED_FACE('',(#337),#318,.T.);
#339=CARTESIAN_POINT('',(230.69685577117482,10.000000000000075,0.0));
#340=DIRECTION('',(0.0,0.0,1.0));
#341=DIRECTION('',(-0.843391445812886,-0.537299608346823,0.0));
#342=AXIS2_PLACEMENT_3D('',#339,#340,#341);
#343=CYLINDRICAL_SURFACE('',#342,10.0);
#344=ORIENTED_EDGE('',*,*,#230,.T.);
#345=CARTESIAN_POINT('',(221.63377790080833,14.226182617407073,0.0));
#346=VERTEX_POINT('',#345);
#347=CARTESIAN_POINT('',(221.63377790080833,14.226182617407066,0.5));
#348=DIRECTION('',(0.0,0.0,-1.0));
#349=VECTOR('',#348,0.5);
#350=LINE('',#347,#349);
#351=EDGE_CURVE('',#218,#346,#350,.T.);
#352=ORIENTED_EDGE('',*,*,#351,.T.);
#353=CARTESIAN_POINT('',(230.69685577117482,10.000000000000075,0.0));
#354=DIRECTION('',(0.0,0.0,1.0));
#355=DIRECTION('',(-0.843391445812886,-0.537299608346823,0.0));
#356=AXIS2_PLACEMENT_3D('',#353,#354,#355);
#357=CIRCLE('',#356,9.999999999999998);
#358=EDGE_CURVE('',#346,#125,#357,.T.);
#359=ORIENTED_EDGE('',*,*,#358,.T.);
#360=ORIENTED_EDGE('',*,*,#130,.T.);
#361=EDGE_LOOP('',(#344,#352,#359,#360));
#362=FACE_OUTER_BOUND('',#361,.T.);
#363=ADVANCED_FACE('',(#362),#343,.T.);
#364=CARTESIAN_POINT('',(235.48907920382271,67.600987978991213,0.0));
#365=DIRECTION('',(0.0,0.0,1.0));
#366=DIRECTION('',(0.996928956054901,-0.078311280025837,0.0));
#367=AXIS2_PLACEMENT_3D('',#364,#365,#366);
#368=CYLINDRICAL_SURFACE('',#367,9.999999999999998);
#369=CARTESIAN_POINT('',(245.10087835499914,70.360211978133705,0.0));
#370=VERTEX_POINT('',#369);
#371=CARTESIAN_POINT('',(244.5521570741891,63.374805361584272,0.0));
#372=VERTEX_POINT('',#371);
#373=CARTESIAN_POINT('',(235.48907920382271,67.600987978991213,0.0));
#374=DIRECTION('',(0.0,0.0,-1.0));
#375=DIRECTION('',(0.996928956054901,-0.078311280025837,0.0));
#376=AXIS2_PLACEMENT_3D('',#373,#374,#375);
#377=CIRCLE('',#376,9.999999999999998);
#378=EDGE_CURVE('',#370,#372,#377,.T.);
#379=ORIENTED_EDGE('',*,*,#378,.T.);
#380=CARTESIAN_POINT('',(244.5521570741891,63.374805361584272,0.0));
#381=DIRECTION('',(0.0,0.0,1.0));
#382=VECTOR('',#381,0.5);
#383=LINE('',#380,#382);
#384=EDGE_CURVE('',#372,#209,#383,.T.);
#385=ORIENTED_EDGE('',*,*,#384,.T.);
#386=ORIENTED_EDGE('',*,*,#215,.T.);
#387=CARTESIAN_POINT('',(245.10087835499914,70.360211978133705,0.5));
#388=DIRECTION('',(0.0,0.0,-1.0));
#389=VECTOR('',#388,0.5);
#390=LINE('',#387,#389);
#391=EDGE_CURVE('',#200,#370,#390,.T.);
#392=ORIENTED_EDGE('',*,*,#391,.T.);
#393=EDGE_LOOP('',(#379,#385,#386,#392));
#394=FACE_OUTER_BOUND('',#393,.T.);
#395=ADVANCED_FACE('',(#394),#368,.F.);
#396=CARTESIAN_POINT('',(214.99999999999994,7.714110E-014,0.0));
#397=DIRECTION('',(-0.90630778703665,0.422618261740699,0.0));
#398=DIRECTION('',(0.0,0.0,1.0));
#399=AXIS2_PLACEMENT_3D('',#396,#397,#398);
#400=PLANE('',#399);
#401=ORIENTED_EDGE('',*,*,#351,.F.);
#402=ORIENTED_EDGE('',*,*,#223,.T.);
#403=ORIENTED_EDGE('',*,*,#384,.F.);
#404=CARTESIAN_POINT('',(244.5521570741891,63.374805361584272,0.0));
#405=DIRECTION('',(-0.422618261740699,-0.90630778703665,0.0));
#406=VECTOR('',#405,54.229505083342808);
#407=LINE('',#404,#406);
#408=EDGE_CURVE('',#372,#346,#407,.T.);
#409=ORIENTED_EDGE('',*,*,#408,.T.);
#410=EDGE_LOOP('',(#401,#402,#403,#409));
#411=FACE_OUTER_BOUND('',#410,.T.);
#412=ADVANCED_FACE('',(#411),#400,.T.);
#413=CARTESIAN_POINT('',(67.600987978991313,235.48907920382271,0.0));
#414=DIRECTION('',(0.0,0.0,1.0));
#415=DIRECTION('',(-0.07831128002584,0.996928956054901,0.0));
#416=AXIS2_PLACEMENT_3D('',#413,#414,#415);
#417=CYLINDRICAL_SURFACE('',#416,10.000000000000002);
#418=CARTESIAN_POINT('',(63.374805361584301,244.55215707418921,0.0));
#419=VERTEX_POINT('',#418);
#420=CARTESIAN_POINT('',(70.360211978133805,245.10087835499911,0.0));
#421=VERTEX_POINT('',#420);
#422=CARTESIAN_POINT('',(67.600987978991313,235.48907920382271,0.0));
#423=DIRECTION('',(0.0,0.0,-1.0));
#424=DIRECTION('',(-0.07831128002584,0.996928956054901,0.0));
#425=AXIS2_PLACEMENT_3D('',#422,#423,#424);
#426=CIRCLE('',#425,10.000000000000002);
#427=EDGE_CURVE('',#419,#421,#426,.T.);
#428=ORIENTED_EDGE('',*,*,#427,.T.);
#429=CARTESIAN_POINT('',(70.360211978133805,245.10087835499911,0.0));
#430=DIRECTION('',(0.0,0.0,1.0));
#431=VECTOR('',#430,0.5);
#432=LINE('',#429,#431);
#433=EDGE_CURVE('',#421,#191,#432,.T.);
#434=ORIENTED_EDGE('',*,*,#433,.T.);
#435=ORIENTED_EDGE('',*,*,#197,.T.);
#436=CARTESIAN_POINT('',(63.374805361584301,244.55215707418921,0.5));
#437=DIRECTION('',(0.0,0.0,-1.0));
#438=VECTOR('',#437,0.5);
#439=LINE('',#436,#438);
#440=EDGE_CURVE('',#183,#419,#439,.T.);
#441=ORIENTED_EDGE('',*,*,#440,.T.);
#442=EDGE_LOOP('',(#428,#434,#435,#441));
#443=FACE_OUTER_BOUND('',#442,.T.);
#444=ADVANCED_FACE('',(#443),#417,.F.);
#445=CARTESIAN_POINT('',(0.0,0.0,0.0));
#446=DIRECTION('',(0.0,0.0,1.0));
#447=DIRECTION('',(-1.0,0.0,0.0));
#448=AXIS2_PLACEMENT_3D('',#445,#446,#447);
#449=CYLINDRICAL_SURFACE('',#448,255.0);
#450=ORIENTED_EDGE('',*,*,#391,.F.);
#451=ORIENTED_EDGE('',*,*,#206,.T.);
#452=ORIENTED_EDGE('',*,*,#433,.F.);
#453=CARTESIAN_POINT('',(0.0,0.0,0.0));
#454=DIRECTION('',(0.0,0.0,-1.0));
#455=DIRECTION('',(-1.0,0.0,0.0));
#456=AXIS2_PLACEMENT_3D('',#453,#454,#455);
#457=CIRCLE('',#456,255.0);
#458=EDGE_CURVE('',#421,#370,#457,.T.);
#459=ORIENTED_EDGE('',*,*,#458,.T.);
#460=EDGE_LOOP('',(#450,#451,#452,#459));
#461=FACE_OUTER_BOUND('',#460,.T.);
#462=ADVANCED_FACE('',(#461),#449,.F.);
#463=CARTESIAN_POINT('',(234.99999999999994,20.000000000000078,0.0));
#464=DIRECTION('',(0.0,0.0,1.0));
#465=DIRECTION('',(-1.0,0.0,0.0));
#466=AXIS2_PLACEMENT_3D('',#463,#464,#465);
#467=CYLINDRICAL_SURFACE('',#466,2.599999999999994);
#468=ORIENTED_EDGE('',*,*,#242,.F.);
#469=EDGE_LOOP('',(#468));
#470=FACE_OUTER_BOUND('',#469,.T.);
#471=CARTESIAN_POINT('',(237.59999999999991,20.000000000000078,0.0));
#472=VERTEX_POINT('',#471);
#473=CARTESIAN_POINT('',(234.99999999999994,20.000000000000078,0.0));
#474=DIRECTION('',(0.0,0.0,1.0));
#475=DIRECTION('',(-1.0,0.0,0.0));
#476=AXIS2_PLACEMENT_3D('',#473,#474,#475);
#477=CIRCLE('',#476,2.599999999999994);
#478=EDGE_CURVE('',#472,#472,#477,.T.);
#479=ORIENTED_EDGE('',*,*,#478,.F.);
#480=EDGE_LOOP('',(#479));
#481=FACE_BOUND('',#480,.T.);
#482=ADVANCED_FACE('',(#470,#481),#467,.F.);
#483=CARTESIAN_POINT('',(19.999999999999989,235.0,0.0));
#484=DIRECTION('',(0.0,0.0,1.0));
#485=DIRECTION('',(-1.0,0.0,0.0));
#486=AXIS2_PLACEMENT_3D('',#483,#484,#485);
#487=CYLINDRICAL_SURFACE('',#486,2.599999999999998);
#488=ORIENTED_EDGE('',*,*,#253,.F.);
#489=EDGE_LOOP('',(#488));
#490=FACE_OUTER_BOUND('',#489,.T.);
#491=CARTESIAN_POINT('',(22.599999999999987,235.0,0.0));
#492=VERTEX_POINT('',#491);
#493=CARTESIAN_POINT('',(19.999999999999989,235.0,0.0));
#494=DIRECTION('',(0.0,0.0,1.0));
#495=DIRECTION('',(-1.0,0.0,0.0));
#496=AXIS2_PLACEMENT_3D('',#493,#494,#495);
#497=CIRCLE('',#496,2.599999999999998);
#498=EDGE_CURVE('',#492,#492,#497,.T.);
#499=ORIENTED_EDGE('',*,*,#498,.F.);
#500=EDGE_LOOP('',(#499));
#501=FACE_BOUND('',#500,.T.);
#502=ADVANCED_FACE('',(#490,#501),#487,.F.);
#503=CARTESIAN_POINT('',(0.0,0.0,0.0));
#504=DIRECTION('',(0.0,0.0,1.0));
#505=DIRECTION('',(1.0,0.0,0.0));
#506=AXIS2_PLACEMENT_3D('',#503,#504,#505);
#507=CYLINDRICAL_SURFACE('',#506,280.0);
#508=ORIENTED_EDGE('',*,*,#105,.F.);
#509=CARTESIAN_POINT('',(0.0,0.0,0.0));
#510=DIRECTION('',(0.0,0.0,1.0));
#511=DIRECTION('',(1.0,0.0,0.0));
#512=AXIS2_PLACEMENT_3D('',#509,#510,#511);
#513=CIRCLE('',#512,280.0);
#514=EDGE_CURVE('',#93,#265,#513,.T.);
#515=ORIENTED_EDGE('',*,*,#514,.T.);
#516=ORIENTED_EDGE('',*,*,#270,.F.);
#517=ORIENTED_EDGE('',*,*,#154,.T.);
#518=EDGE_LOOP('',(#508,#515,#516,#517));
#519=FACE_OUTER_BOUND('',#518,.T.);
#520=ADVANCED_FACE('',(#519),#507,.T.);
#521=CARTESIAN_POINT('',(66.726341872950314,246.11500421602528,0.0));
#522=DIRECTION('',(0.422618261740699,-0.90630778703665,0.0));
#523=DIRECTION('',(0.0,0.0,-1.0));
#524=AXIS2_PLACEMENT_3D('',#521,#522,#523);
#525=PLANE('',#524);
#526=ORIENTED_EDGE('',*,*,#334,.F.);
#527=CARTESIAN_POINT('',(14.226182617406995,221.63377790080841,0.0));
#528=DIRECTION('',(0.90630778703665,0.422618261740699,0.0));
#529=VECTOR('',#528,54.229505083342964);
#530=LINE('',#527,#529);
#531=EDGE_CURVE('',#322,#419,#530,.T.);
#532=ORIENTED_EDGE('',*,*,#531,.T.);
#533=ORIENTED_EDGE('',*,*,#440,.F.);
#534=ORIENTED_EDGE('',*,*,#188,.T.);
#535=EDGE_LOOP('',(#526,#532,#533,#534));
#536=FACE_OUTER_BOUND('',#535,.T.);
#537=ADVANCED_FACE('',(#536),#525,.T.);
#538=CARTESIAN_POINT('',(239.48723619587577,26.061491374560081,0.0));
#539=DIRECTION('',(0.0,0.0,1.0));
#540=DIRECTION('',(1.0,0.0,0.0));
#541=AXIS2_PLACEMENT_3D('',#538,#539,#540);
#542=PLANE('',#541);
#543=ORIENTED_EDGE('',*,*,#99,.F.);
#544=ORIENTED_EDGE('',*,*,#136,.F.);
#545=ORIENTED_EDGE('',*,*,#358,.F.);
#546=ORIENTED_EDGE('',*,*,#408,.F.);
#547=ORIENTED_EDGE('',*,*,#378,.F.);
#548=ORIENTED_EDGE('',*,*,#458,.F.);
#549=ORIENTED_EDGE('',*,*,#427,.F.);
#550=ORIENTED_EDGE('',*,*,#531,.F.);
#551=ORIENTED_EDGE('',*,*,#328,.F.);
#552=ORIENTED_EDGE('',*,*,#302,.F.);
#553=ORIENTED_EDGE('',*,*,#279,.F.);
#554=ORIENTED_EDGE('',*,*,#514,.F.);
#555=EDGE_LOOP('',(#543,#544,#545,#546,#547,#548,#549,#550,#551,#552,#553,#554));
#556=FACE_OUTER_BOUND('',#555,.T.);
#557=ORIENTED_EDGE('',*,*,#478,.T.);
#558=EDGE_LOOP('',(#557));
#559=FACE_BOUND('',#558,.T.);
#560=ORIENTED_EDGE('',*,*,#498,.T.);
#561=EDGE_LOOP('',(#560));
#562=FACE_BOUND('',#561,.T.);
#563=ADVANCED_FACE('',(#556,#559,#562),#542,.F.);
#564=CLOSED_SHELL('',(#109,#140,#257,#289,#313,#338,#363,#395,#412,#444,#462,#482,#502,#520,#537,#563));
#565=MANIFOLD_SOLID_BREP('Solid2',#564);
#566=DRAUGHTING_PRE_DEFINED_COLOUR('white');
#567=FILL_AREA_STYLE_COLOUR('Snow',#566);
#568=FILL_AREA_STYLE('Snow',(#567));
#569=SURFACE_STYLE_FILL_AREA(#568);
#570=SURFACE_SIDE_STYLE('Snow',(#569));
#571=SURFACE_STYLE_USAGE(.BOTH.,#570);
#572=PRESENTATION_STYLE_ASSIGNMENT((#571));
#573=STYLED_ITEM('',(#572),#565);
#574=MECHANICAL_DESIGN_GEOMETRIC_PRESENTATION_REPRESENTATION('',(#573),#36);
#575=ADVANCED_BREP_SHAPE_REPRESENTATION('ABSR',(#565),#36);
#576=SHAPE_REPRESENTATION_RELATIONSHIP('SRR','None',#575,#41);
ENDSEC;
END-ISO-10303-21;
