ISO-10303-21;
HEADER;
/****************************************************************
 * Generated by software with PDElib inside                    *
 * PDElib Version v51a, created Wed 11/30/2011                  *
 * ITI Transcendata (http://www.transcendata.com/)              *
 ****************************************************************/
FILE_DESCRIPTION((''),'2;1');
FILE_NAME('C:\\Vault_WS\\Designs\\CQC_ConvertFile\\Output\\H\S\DLM-80.stp','2014-02-21T14:09:08',(''),(''),'Autodesk Inventor 2013','Autodesk Inventor 2013','');
FILE_SCHEMA(('AUTOMOTIVE_DESIGN { 1 2 10303 214 0 1 1 1 }'));
ENDSEC;
DATA;
#5=APPLICATION_CONTEXT('automotive design');
#6=APPLICATION_PROTOCOL_DEFINITION('Draft International Standard','automotive_design',1998,#5);
#7=PRODUCT_CONTEXT('None',#5,'mechanical');
#8=PRODUCT('H\S\DLM-80','H\S\DLM-80','None',(#7));
#9=PRODUCT_RELATED_PRODUCT_CATEGORY('part','description',(#8));
#10=PRODUCT_DEFINITION_FORMATION('None','None',#8);
#11=PRODUCT_DEFINITION_CONTEXT('part definition',#5,'design');
#12=PRODUCT_DEFINITION('None','None',#10,#11);
#18=(NAMED_UNIT(*)PLANE_ANGLE_UNIT()SI_UNIT($,.RADIAN.));
#19=DIMENSIONAL_EXPONENTS(0.0,0.0,0.0,0.0,0.0,0.0,0.0);
#20=PLANE_ANGLE_MEASURE_WITH_UNIT(PLANE_ANGLE_MEASURE(0.0174532925),#18);
#24=(CONVERSION_BASED_UNIT('DEGREE',#20)NAMED_UNIT(#19)PLANE_ANGLE_UNIT());
#28=(NAMED_UNIT(*)SI_UNIT($,.STERADIAN.)SOLID_ANGLE_UNIT());
#32=(LENGTH_UNIT()NAMED_UNIT(*)SI_UNIT(.MILLI.,.METRE.));
#34=UNCERTAINTY_MEASURE_WITH_UNIT(LENGTH_MEASURE(0.01),#32,'DISTANCE_ACCURACY_VALUE','');
#36=(GEOMETRIC_REPRESENTATION_CONTEXT(3)GLOBAL_UNCERTAINTY_ASSIGNED_CONTEXT((#34))GLOBAL_UNIT_ASSIGNED_CONTEXT((#24,#28,#32))REPRESENTATION_CONTEXT('None','None'));
#37=AXIS2_PLACEMENT_3D('',#38,#39,#40);
#38=CARTESIAN_POINT('',(0.0,0.0,0.0));
#39=DIRECTION('',(0.0,0.0,1.0));
#40=DIRECTION('',(1.0,0.0,0.0));
#41=SHAPE_REPRESENTATION('',(#37),#36);
#42=PRODUCT_DEFINITION_SHAPE('','',#12);
#43=SHAPE_DEFINITION_REPRESENTATION(#42,#41);
#49=(NAMED_UNIT(*)PLANE_ANGLE_UNIT()SI_UNIT($,.RADIAN.));
#50=DIMENSIONAL_EXPONENTS(0.0,0.0,0.0,0.0,0.0,0.0,0.0);
#51=PLANE_ANGLE_MEASURE_WITH_UNIT(PLANE_ANGLE_MEASURE(0.0174532925),#49);
#55=(CONVERSION_BASED_UNIT('DEGREE',#51)NAMED_UNIT(#50)PLANE_ANGLE_UNIT());
#59=(NAMED_UNIT(*)SI_UNIT($,.STERADIAN.)SOLID_ANGLE_UNIT());
#63=(LENGTH_UNIT()NAMED_UNIT(*)SI_UNIT(.MILLI.,.METRE.));
#65=UNCERTAINTY_MEASURE_WITH_UNIT(LENGTH_MEASURE(0.000001),#63,'DISTANCE_ACCURACY_VALUE','');
#67=(GEOMETRIC_REPRESENTATION_CONTEXT(3)GLOBAL_UNCERTAINTY_ASSIGNED_CONTEXT((#65))GLOBAL_UNIT_ASSIGNED_CONTEXT((#55,#59,#63))REPRESENTATION_CONTEXT('','3D'));
#68=CARTESIAN_POINT('',(-40.125,-1.607048E-013,4.913895E-015));
#69=DIRECTION('',(0.0,1.0,0.0));
#70=DIRECTION('',(0.0,0.0,1.0));
#71=AXIS2_PLACEMENT_3D('',#68,#69,#70);
#72=PLANE('',#71);
#73=CARTESIAN_POINT('',(-40.625,-1.607048E-013,-4.975128E-015));
#74=VERTEX_POINT('',#73);
#75=CARTESIAN_POINT('',(0.0,-1.607048E-013,0.0));
#76=DIRECTION('',(0.0,-1.0,0.0));
#77=DIRECTION('',(1.0,0.0,0.0));
#78=AXIS2_PLACEMENT_3D('',#75,#76,#77);
#79=CIRCLE('',#78,40.625);
#80=EDGE_CURVE('',#74,#74,#79,.T.);
#81=ORIENTED_EDGE('',*,*,#80,.T.);
#82=EDGE_LOOP('',(#81));
#83=FACE_OUTER_BOUND('',#82,.T.);
#84=CARTESIAN_POINT('',(40.125,-1.607048E-013,0.0));
#85=VERTEX_POINT('',#84);
#86=CARTESIAN_POINT('',(0.0,-1.607048E-013,0.0));
#87=DIRECTION('',(0.0,-1.0,0.0));
#88=DIRECTION('',(1.0,0.0,0.0));
#89=AXIS2_PLACEMENT_3D('',#86,#87,#88);
#90=CIRCLE('',#89,40.125);
#91=EDGE_CURVE('',#85,#85,#90,.T.);
#92=ORIENTED_EDGE('',*,*,#91,.F.);
#93=EDGE_LOOP('',(#92));
#94=FACE_BOUND('',#93,.T.);
#95=ADVANCED_FACE('',(#83,#94),#72,.F.);
#96=CARTESIAN_POINT('',(18.5625,37.999999999999844,0.0));
#97=DIRECTION('',(0.0,1.0,0.0));
#98=DIRECTION('',(0.0,0.0,1.0));
#99=AXIS2_PLACEMENT_3D('',#96,#97,#98);
#100=PLANE('',#99);
#101=CARTESIAN_POINT('',(37.125,37.999999999999844,0.0));
#102=VERTEX_POINT('',#101);
#103=CARTESIAN_POINT('',(0.0,37.999999999999844,0.0));
#104=DIRECTION('',(0.0,-1.0,0.0));
#105=DIRECTION('',(1.0,0.0,0.0));
#106=AXIS2_PLACEMENT_3D('',#103,#104,#105);
#107=CIRCLE('',#106,37.125);
#108=EDGE_CURVE('',#102,#102,#107,.T.);
#109=ORIENTED_EDGE('',*,*,#108,.F.);
#110=EDGE_LOOP('',(#109));
#111=FACE_OUTER_BOUND('',#110,.T.);
#112=ADVANCED_FACE('',(#111),#100,.T.);
#113=CARTESIAN_POINT('',(0.0,34.499999999999844,0.0));
#114=DIRECTION('',(0.0,-1.0,0.0));
#115=DIRECTION('',(0.0,0.0,-1.0));
#116=AXIS2_PLACEMENT_3D('',#113,#114,#115);
#117=TOROIDAL_SURFACE('',#116,37.125,3.5);
#118=CARTESIAN_POINT('',(40.625,34.499999999999844,0.0));
#119=VERTEX_POINT('',#118);
#120=CARTESIAN_POINT('',(0.0,34.499999999999844,0.0));
#121=DIRECTION('',(0.0,-1.0,0.0));
#122=DIRECTION('',(1.0,0.0,0.0));
#123=AXIS2_PLACEMENT_3D('',#120,#121,#122);
#124=CIRCLE('',#123,40.625);
#125=EDGE_CURVE('',#119,#119,#124,.T.);
#126=ORIENTED_EDGE('',*,*,#125,.F.);
#127=EDGE_LOOP('',(#126));
#128=FACE_OUTER_BOUND('',#127,.T.);
#129=ORIENTED_EDGE('',*,*,#108,.T.);
#130=EDGE_LOOP('',(#129));
#131=FACE_BOUND('',#130,.T.);
#132=ADVANCED_FACE('',(#128,#131),#117,.T.);
#133=CARTESIAN_POINT('',(0.0,17.574999999999768,0.0));
#134=DIRECTION('',(0.0,-1.0,0.0));
#135=DIRECTION('',(1.0,0.0,0.0));
#136=AXIS2_PLACEMENT_3D('',#133,#134,#135);
#137=CYLINDRICAL_SURFACE('',#136,40.625);
#138=ORIENTED_EDGE('',*,*,#80,.F.);
#139=EDGE_LOOP('',(#138));
#140=FACE_OUTER_BOUND('',#139,.T.);
#141=ORIENTED_EDGE('',*,*,#125,.T.);
#142=EDGE_LOOP('',(#141));
#143=FACE_BOUND('',#142,.T.);
#144=ADVANCED_FACE('',(#140,#143),#137,.T.);
#145=CARTESIAN_POINT('',(18.5625,37.499999999999851,0.0));
#146=DIRECTION('',(0.0,1.0,0.0));
#147=DIRECTION('',(0.0,0.0,1.0));
#148=AXIS2_PLACEMENT_3D('',#145,#146,#147);
#149=PLANE('',#148);
#150=CARTESIAN_POINT('',(37.125,37.499999999999851,0.0));
#151=VERTEX_POINT('',#150);
#152=CARTESIAN_POINT('',(0.0,37.499999999999851,0.0));
#153=DIRECTION('',(0.0,-1.0,0.0));
#154=DIRECTION('',(1.0,0.0,0.0));
#155=AXIS2_PLACEMENT_3D('',#152,#153,#154);
#156=CIRCLE('',#155,37.125);
#157=EDGE_CURVE('',#151,#151,#156,.T.);
#158=ORIENTED_EDGE('',*,*,#157,.T.);
#159=EDGE_LOOP('',(#158));
#160=FACE_OUTER_BOUND('',#159,.T.);
#161=ADVANCED_FACE('',(#160),#149,.F.);
#162=CARTESIAN_POINT('',(0.0,34.499999999999844,0.0));
#163=DIRECTION('',(0.0,-1.0,0.0));
#164=DIRECTION('',(0.0,0.0,-1.0));
#165=AXIS2_PLACEMENT_3D('',#162,#163,#164);
#166=TOROIDAL_SURFACE('',#165,37.125,3.0);
#167=CARTESIAN_POINT('',(40.125,34.499999999999844,0.0));
#168=VERTEX_POINT('',#167);
#169=CARTESIAN_POINT('',(0.0,34.499999999999844,0.0));
#170=DIRECTION('',(0.0,-1.0,0.0));
#171=DIRECTION('',(1.0,0.0,0.0));
#172=AXIS2_PLACEMENT_3D('',#169,#170,#171);
#173=CIRCLE('',#172,40.125);
#174=EDGE_CURVE('',#168,#168,#173,.T.);
#175=ORIENTED_EDGE('',*,*,#174,.T.);
#176=EDGE_LOOP('',(#175));
#177=FACE_OUTER_BOUND('',#176,.T.);
#178=ORIENTED_EDGE('',*,*,#157,.F.);
#179=EDGE_LOOP('',(#178));
#180=FACE_BOUND('',#179,.T.);
#181=ADVANCED_FACE('',(#177,#180),#166,.F.);
#182=CARTESIAN_POINT('',(0.0,17.574999999999768,0.0));
#183=DIRECTION('',(0.0,-1.0,0.0));
#184=DIRECTION('',(1.0,0.0,0.0));
#185=AXIS2_PLACEMENT_3D('',#182,#183,#184);
#186=CYLINDRICAL_SURFACE('',#185,40.125);
#187=ORIENTED_EDGE('',*,*,#91,.T.);
#188=EDGE_LOOP('',(#187));
#189=FACE_OUTER_BOUND('',#188,.T.);
#190=ORIENTED_EDGE('',*,*,#174,.F.);
#191=EDGE_LOOP('',(#190));
#192=FACE_BOUND('',#191,.T.);
#193=ADVANCED_FACE('',(#189,#192),#186,.F.);
#194=CLOSED_SHELL('',(#95,#112,#132,#144,#161,#181,#193));
#195=MANIFOLD_SOLID_BREP('Solid1',#194);
#196=COLOUR_RGB('',1.0,1.0,1.0);
#197=FILL_AREA_STYLE_COLOUR('',#196);
#198=FILL_AREA_STYLE('',(#197));
#199=SURFACE_STYLE_FILL_AREA(#198);
#200=SURFACE_SIDE_STYLE('',(#199));
#201=SURFACE_STYLE_USAGE(.BOTH.,#200);
#202=PRESENTATION_STYLE_ASSIGNMENT((#201));
#203=STYLED_ITEM('',(#202),#95);
#204=STYLED_ITEM('',(#202),#112);
#205=STYLED_ITEM('',(#202),#132);
#206=STYLED_ITEM('',(#202),#144);
#207=STYLED_ITEM('',(#202),#161);
#208=STYLED_ITEM('',(#202),#181);
#209=STYLED_ITEM('',(#202),#193);
#210=MECHANICAL_DESIGN_GEOMETRIC_PRESENTATION_REPRESENTATION('',(#203,#204,#205,#206,#207,#208,#209,#218),#67);
#211=DRAUGHTING_PRE_DEFINED_COLOUR('white');
#212=FILL_AREA_STYLE_COLOUR('Steel Galvanized',#211);
#213=FILL_AREA_STYLE('Steel Galvanized',(#212));
#214=SURFACE_STYLE_FILL_AREA(#213);
#215=SURFACE_SIDE_STYLE('Steel Galvanized',(#214));
#216=SURFACE_STYLE_USAGE(.BOTH.,#215);
#217=PRESENTATION_STYLE_ASSIGNMENT((#216));
#218=STYLED_ITEM('',(#217),#195);
#219=ADVANCED_BREP_SHAPE_REPRESENTATION('ABSR',(#195),#36);
#220=SHAPE_REPRESENTATION_RELATIONSHIP('SRR','None',#219,#41);
ENDSEC;
END-ISO-10303-21;
