ISO-10303-21;
HEADER;
/* Generated by software containing ST-Developer
 * from STEP Tools, Inc. (www.steptools.com) 
 */

FILE_DESCRIPTION(
/* description */ ('Stos m. kant muff imkanal'),
/* implementation_level */ '2;1');

FILE_NAME(
/* name */ 'C:\\Vault_WS\\Designs\\CHV\\Heat\\Stos\\HSKMH\\Output\\HSK
MH-8.stp',
/* time_stamp */ '2016-02-11T08:42:53+01:00',
/* author */ ('John'),
/* organization */ (''),
/* preprocessor_version */ 'ST-DEVELOPER v15.6',
/* originating_system */ 'Autodesk Inventor 2015',
/* authorisation */ '');

FILE_SCHEMA (('AUTOMOTIVE_DESIGN { 1 0 10303 214 3 1 1 }'));
ENDSEC;

DATA;
#10=MECHANICAL_DESIGN_GEOMETRIC_PRESENTATION_REPRESENTATION('',(#206,#204,
#205,#200,#203,#201,#202,#211,#212,#208,#213,#209,#210,#207,#214),#389);
#11=SHAPE_REPRESENTATION_RELATIONSHIP('SRR','None',#398,#12);
#12=ADVANCED_BREP_SHAPE_REPRESENTATION($,(#13),#388);
#13=MANIFOLD_SOLID_BREP('Solid2',#229);
#14=CYLINDRICAL_SURFACE('',#244,326.6);
#15=CYLINDRICAL_SURFACE('',#250,317.6);
#16=CYLINDRICAL_SURFACE('',#254,316.6);
#17=TOROIDAL_SURFACE('',#239,318.6,1.99999999999999);
#18=TOROIDAL_SURFACE('',#248,318.6,0.999999999999979);
#19=FACE_OUTER_BOUND('',#33,.T.);
#20=FACE_OUTER_BOUND('',#34,.T.);
#21=FACE_OUTER_BOUND('',#35,.T.);
#22=FACE_OUTER_BOUND('',#36,.T.);
#23=FACE_OUTER_BOUND('',#37,.T.);
#24=FACE_OUTER_BOUND('',#38,.T.);
#25=FACE_OUTER_BOUND('',#39,.T.);
#26=FACE_OUTER_BOUND('',#40,.T.);
#27=FACE_OUTER_BOUND('',#41,.T.);
#28=FACE_OUTER_BOUND('',#42,.T.);
#29=FACE_OUTER_BOUND('',#43,.T.);
#30=FACE_OUTER_BOUND('',#44,.T.);
#31=FACE_OUTER_BOUND('',#45,.T.);
#32=FACE_OUTER_BOUND('',#46,.T.);
#33=EDGE_LOOP('',(#135,#136,#137,#138));
#34=EDGE_LOOP('',(#139,#140,#141,#142));
#35=EDGE_LOOP('',(#143,#144,#145,#146));
#36=EDGE_LOOP('',(#147,#148,#149,#150));
#37=EDGE_LOOP('',(#151,#152,#153,#154));
#38=EDGE_LOOP('',(#155,#156,#157,#158));
#39=EDGE_LOOP('',(#159,#160,#161,#162));
#40=EDGE_LOOP('',(#163,#164,#165,#166));
#41=EDGE_LOOP('',(#167,#168,#169,#170));
#42=EDGE_LOOP('',(#171,#172,#173,#174));
#43=EDGE_LOOP('',(#175,#176,#177,#178));
#44=EDGE_LOOP('',(#179,#180,#181,#182));
#45=EDGE_LOOP('',(#183,#184,#185,#186));
#46=EDGE_LOOP('',(#187,#188,#189,#190));
#47=CIRCLE('',#232,0.999999999999993);
#48=CIRCLE('',#233,1.99999999999999);
#49=CIRCLE('',#236,1.99999999999999);
#50=CIRCLE('',#237,0.999999999999993);
#51=CIRCLE('',#240,318.6);
#52=CIRCLE('',#241,316.6);
#53=CIRCLE('',#243,326.6);
#54=CIRCLE('',#245,326.6);
#55=CIRCLE('',#247,318.6);
#56=CIRCLE('',#249,317.6);
#57=CIRCLE('',#251,317.6);
#58=CIRCLE('',#253,316.6);
#59=LINE('',#331,#75);
#60=LINE('',#335,#76);
#61=LINE('',#339,#77);
#62=LINE('',#341,#78);
#63=LINE('',#342,#79);
#64=LINE('',#346,#80);
#65=LINE('',#350,#81);
#66=LINE('',#354,#82);
#67=LINE('',#356,#83);
#68=LINE('',#357,#84);
#69=LINE('',#364,#85);
#70=LINE('',#368,#86);
#71=LINE('',#371,#87);
#72=LINE('',#376,#88);
#73=LINE('',#380,#89);
#74=LINE('',#383,#90);
#75=VECTOR('',#261,1.00000000000002);
#76=VECTOR('',#264,0.999999999999996);
#77=VECTOR('',#269,7.99999999999997);
#78=VECTOR('',#270,0.999999999999996);
#79=VECTOR('',#271,7.99999999999997);
#80=VECTOR('',#274,1.00000000000001);
#81=VECTOR('',#277,0.999999999999996);
#82=VECTOR('',#282,113.);
#83=VECTOR('',#283,1.00000000000001);
#84=VECTOR('',#284,113.);
#85=VECTOR('',#295,7.99999999999997);
#86=VECTOR('',#300,0.999999999999996);
#87=VECTOR('',#305,7.99999999999997);
#88=VECTOR('',#312,113.);
#89=VECTOR('',#317,1.00000000000002);
#90=VECTOR('',#322,113.);
#91=VERTEX_POINT('',#329);
#92=VERTEX_POINT('',#330);
#93=VERTEX_POINT('',#332);
#94=VERTEX_POINT('',#334);
#95=VERTEX_POINT('',#338);
#96=VERTEX_POINT('',#340);
#97=VERTEX_POINT('',#344);
#98=VERTEX_POINT('',#345);
#99=VERTEX_POINT('',#347);
#100=VERTEX_POINT('',#349);
#101=VERTEX_POINT('',#353);
#102=VERTEX_POINT('',#355);
#103=VERTEX_POINT('',#362);
#104=VERTEX_POINT('',#366);
#105=VERTEX_POINT('',#375);
#106=VERTEX_POINT('',#379);
#107=EDGE_CURVE('',#91,#92,#59,.T.);
#108=EDGE_CURVE('',#93,#91,#47,.T.);
#109=EDGE_CURVE('',#93,#94,#60,.T.);
#110=EDGE_CURVE('',#92,#94,#48,.T.);
#111=EDGE_CURVE('',#95,#93,#61,.T.);
#112=EDGE_CURVE('',#96,#95,#62,.T.);
#113=EDGE_CURVE('',#94,#96,#63,.T.);
#114=EDGE_CURVE('',#97,#98,#64,.T.);
#115=EDGE_CURVE('',#97,#99,#49,.T.);
#116=EDGE_CURVE('',#99,#100,#65,.T.);
#117=EDGE_CURVE('',#100,#98,#50,.T.);
#118=EDGE_CURVE('',#98,#101,#66,.T.);
#119=EDGE_CURVE('',#101,#102,#67,.T.);
#120=EDGE_CURVE('',#102,#97,#68,.T.);
#121=EDGE_CURVE('',#99,#94,#51,.T.);
#122=EDGE_CURVE('',#97,#92,#52,.T.);
#123=EDGE_CURVE('',#103,#96,#53,.T.);
#124=EDGE_CURVE('',#99,#103,#69,.T.);
#125=EDGE_CURVE('',#104,#95,#54,.T.);
#126=EDGE_CURVE('',#103,#104,#70,.T.);
#127=EDGE_CURVE('',#100,#93,#55,.T.);
#128=EDGE_CURVE('',#104,#100,#71,.T.);
#129=EDGE_CURVE('',#98,#91,#56,.T.);
#130=EDGE_CURVE('',#91,#105,#72,.T.);
#131=EDGE_CURVE('',#101,#105,#57,.T.);
#132=EDGE_CURVE('',#105,#106,#73,.T.);
#133=EDGE_CURVE('',#102,#106,#58,.T.);
#134=EDGE_CURVE('',#106,#92,#74,.T.);
#135=ORIENTED_EDGE('',*,*,#107,.F.);
#136=ORIENTED_EDGE('',*,*,#108,.F.);
#137=ORIENTED_EDGE('',*,*,#109,.T.);
#138=ORIENTED_EDGE('',*,*,#110,.F.);
#139=ORIENTED_EDGE('',*,*,#109,.F.);
#140=ORIENTED_EDGE('',*,*,#111,.F.);
#141=ORIENTED_EDGE('',*,*,#112,.F.);
#142=ORIENTED_EDGE('',*,*,#113,.F.);
#143=ORIENTED_EDGE('',*,*,#114,.F.);
#144=ORIENTED_EDGE('',*,*,#115,.T.);
#145=ORIENTED_EDGE('',*,*,#116,.T.);
#146=ORIENTED_EDGE('',*,*,#117,.T.);
#147=ORIENTED_EDGE('',*,*,#114,.T.);
#148=ORIENTED_EDGE('',*,*,#118,.T.);
#149=ORIENTED_EDGE('',*,*,#119,.T.);
#150=ORIENTED_EDGE('',*,*,#120,.T.);
#151=ORIENTED_EDGE('',*,*,#110,.T.);
#152=ORIENTED_EDGE('',*,*,#121,.F.);
#153=ORIENTED_EDGE('',*,*,#115,.F.);
#154=ORIENTED_EDGE('',*,*,#122,.T.);
#155=ORIENTED_EDGE('',*,*,#113,.T.);
#156=ORIENTED_EDGE('',*,*,#123,.F.);
#157=ORIENTED_EDGE('',*,*,#124,.F.);
#158=ORIENTED_EDGE('',*,*,#121,.T.);
#159=ORIENTED_EDGE('',*,*,#112,.T.);
#160=ORIENTED_EDGE('',*,*,#125,.F.);
#161=ORIENTED_EDGE('',*,*,#126,.F.);
#162=ORIENTED_EDGE('',*,*,#123,.T.);
#163=ORIENTED_EDGE('',*,*,#111,.T.);
#164=ORIENTED_EDGE('',*,*,#127,.F.);
#165=ORIENTED_EDGE('',*,*,#128,.F.);
#166=ORIENTED_EDGE('',*,*,#125,.T.);
#167=ORIENTED_EDGE('',*,*,#108,.T.);
#168=ORIENTED_EDGE('',*,*,#129,.F.);
#169=ORIENTED_EDGE('',*,*,#117,.F.);
#170=ORIENTED_EDGE('',*,*,#127,.T.);
#171=ORIENTED_EDGE('',*,*,#130,.T.);
#172=ORIENTED_EDGE('',*,*,#131,.F.);
#173=ORIENTED_EDGE('',*,*,#118,.F.);
#174=ORIENTED_EDGE('',*,*,#129,.T.);
#175=ORIENTED_EDGE('',*,*,#132,.T.);
#176=ORIENTED_EDGE('',*,*,#133,.F.);
#177=ORIENTED_EDGE('',*,*,#119,.F.);
#178=ORIENTED_EDGE('',*,*,#131,.T.);
#179=ORIENTED_EDGE('',*,*,#134,.T.);
#180=ORIENTED_EDGE('',*,*,#122,.F.);
#181=ORIENTED_EDGE('',*,*,#120,.F.);
#182=ORIENTED_EDGE('',*,*,#133,.T.);
#183=ORIENTED_EDGE('',*,*,#107,.T.);
#184=ORIENTED_EDGE('',*,*,#134,.F.);
#185=ORIENTED_EDGE('',*,*,#132,.F.);
#186=ORIENTED_EDGE('',*,*,#130,.F.);
#187=ORIENTED_EDGE('',*,*,#116,.F.);
#188=ORIENTED_EDGE('',*,*,#124,.T.);
#189=ORIENTED_EDGE('',*,*,#126,.T.);
#190=ORIENTED_EDGE('',*,*,#128,.T.);
#191=PLANE('',#231);
#192=PLANE('',#234);
#193=PLANE('',#235);
#194=PLANE('',#238);
#195=PLANE('',#242);
#196=PLANE('',#246);
#197=PLANE('',#252);
#198=PLANE('',#255);
#199=PLANE('',#256);
#200=STYLED_ITEM('',(#407),#215);
#201=STYLED_ITEM('',(#407),#216);
#202=STYLED_ITEM('',(#407),#217);
#203=STYLED_ITEM('',(#407),#218);
#204=STYLED_ITEM('',(#407),#219);
#205=STYLED_ITEM('',(#407),#220);
#206=STYLED_ITEM('',(#407),#221);
#207=STYLED_ITEM('',(#407),#222);
#208=STYLED_ITEM('',(#407),#223);
#209=STYLED_ITEM('',(#407),#224);
#210=STYLED_ITEM('',(#407),#225);
#211=STYLED_ITEM('',(#407),#226);
#212=STYLED_ITEM('',(#407),#227);
#213=STYLED_ITEM('',(#407),#228);
#214=STYLED_ITEM('',(#407),#13);
#215=ADVANCED_FACE('',(#19),#191,.F.);
#216=ADVANCED_FACE('',(#20),#192,.F.);
#217=ADVANCED_FACE('',(#21),#193,.T.);
#218=ADVANCED_FACE('',(#22),#194,.T.);
#219=ADVANCED_FACE('',(#23),#17,.T.);
#220=ADVANCED_FACE('',(#24),#195,.T.);
#221=ADVANCED_FACE('',(#25),#14,.T.);
#222=ADVANCED_FACE('',(#26),#196,.T.);
#223=ADVANCED_FACE('',(#27),#18,.F.);
#224=ADVANCED_FACE('',(#28),#15,.T.);
#225=ADVANCED_FACE('',(#29),#197,.T.);
#226=ADVANCED_FACE('',(#30),#16,.F.);
#227=ADVANCED_FACE('',(#31),#198,.F.);
#228=ADVANCED_FACE('',(#32),#199,.T.);
#229=CLOSED_SHELL('',(#215,#216,#217,#218,#219,#220,#221,#222,#223,#224,
#225,#226,#227,#228));
#230=AXIS2_PLACEMENT_3D('placement',#327,#257,#258);
#231=AXIS2_PLACEMENT_3D('',#328,#259,#260);
#232=AXIS2_PLACEMENT_3D('',#333,#262,#263);
#233=AXIS2_PLACEMENT_3D('',#336,#265,#266);
#234=AXIS2_PLACEMENT_3D('',#337,#267,#268);
#235=AXIS2_PLACEMENT_3D('',#343,#272,#273);
#236=AXIS2_PLACEMENT_3D('',#348,#275,#276);
#237=AXIS2_PLACEMENT_3D('',#351,#278,#279);
#238=AXIS2_PLACEMENT_3D('',#352,#280,#281);
#239=AXIS2_PLACEMENT_3D('',#358,#285,#286);
#240=AXIS2_PLACEMENT_3D('',#359,#287,#288);
#241=AXIS2_PLACEMENT_3D('',#360,#289,#290);
#242=AXIS2_PLACEMENT_3D('',#361,#291,#292);
#243=AXIS2_PLACEMENT_3D('',#363,#293,#294);
#244=AXIS2_PLACEMENT_3D('',#365,#296,#297);
#245=AXIS2_PLACEMENT_3D('',#367,#298,#299);
#246=AXIS2_PLACEMENT_3D('',#369,#301,#302);
#247=AXIS2_PLACEMENT_3D('',#370,#303,#304);
#248=AXIS2_PLACEMENT_3D('',#372,#306,#307);
#249=AXIS2_PLACEMENT_3D('',#373,#308,#309);
#250=AXIS2_PLACEMENT_3D('',#374,#310,#311);
#251=AXIS2_PLACEMENT_3D('',#377,#313,#314);
#252=AXIS2_PLACEMENT_3D('',#378,#315,#316);
#253=AXIS2_PLACEMENT_3D('',#381,#318,#319);
#254=AXIS2_PLACEMENT_3D('',#382,#320,#321);
#255=AXIS2_PLACEMENT_3D('',#384,#323,#324);
#256=AXIS2_PLACEMENT_3D('',#385,#325,#326);
#257=DIRECTION('axis',(0.,0.,1.));
#258=DIRECTION('refdir',(1.,0.,0.));
#259=DIRECTION('center_axis',(1.74532925199228E-5,0.,0.999999999847691));
#260=DIRECTION('ref_axis',(0.999999999847691,0.,-1.74532925199227E-5));
#261=DIRECTION('',(0.999999999847691,0.,-1.74532925711898E-5));
#262=DIRECTION('center_axis',(-1.74532925199228E-5,0.,-0.999999999847691));
#263=DIRECTION('ref_axis',(-0.999999999847691,0.,1.74532925199228E-5));
#264=DIRECTION('',(0.,1.,0.));
#265=DIRECTION('center_axis',(1.74532925199228E-5,0.,0.999999999847691));
#266=DIRECTION('ref_axis',(0.999999999847691,0.,-1.74532925199228E-5));
#267=DIRECTION('center_axis',(1.74532925199228E-5,0.,0.999999999847691));
#268=DIRECTION('ref_axis',(0.999999999847691,0.,-1.74532925199227E-5));
#269=DIRECTION('',(0.999999999847691,0.,-1.74532925199228E-5));
#270=DIRECTION('',(0.,-1.,0.));
#271=DIRECTION('',(-0.999999999847691,0.,1.74532925199228E-5));
#272=DIRECTION('center_axis',(0.,0.,1.));
#273=DIRECTION('ref_axis',(1.,0.,0.));
#274=DIRECTION('',(-1.,0.,0.));
#275=DIRECTION('center_axis',(0.,0.,1.));
#276=DIRECTION('ref_axis',(1.,0.,0.));
#277=DIRECTION('',(0.,-1.,0.));
#278=DIRECTION('center_axis',(0.,0.,-1.));
#279=DIRECTION('ref_axis',(-1.,0.,0.));
#280=DIRECTION('center_axis',(0.,0.,1.));
#281=DIRECTION('ref_axis',(1.,0.,0.));
#282=DIRECTION('',(0.,-1.,0.));
#283=DIRECTION('',(1.,0.,0.));
#284=DIRECTION('',(0.,1.,0.));
#285=DIRECTION('center_axis',(0.,-1.,0.));
#286=DIRECTION('ref_axis',(0.,0.,-1.));
#287=DIRECTION('center_axis',(0.,-1.,0.));
#288=DIRECTION('ref_axis',(-1.,0.,0.));
#289=DIRECTION('center_axis',(0.,-1.,0.));
#290=DIRECTION('ref_axis',(-1.,0.,0.));
#291=DIRECTION('center_axis',(0.,1.,0.));
#292=DIRECTION('ref_axis',(0.,0.,1.));
#293=DIRECTION('center_axis',(0.,-1.,0.));
#294=DIRECTION('ref_axis',(-1.,0.,0.));
#295=DIRECTION('',(-1.,0.,0.));
#296=DIRECTION('center_axis',(0.,-1.,0.));
#297=DIRECTION('ref_axis',(-1.,0.,0.));
#298=DIRECTION('center_axis',(0.,-1.,0.));
#299=DIRECTION('ref_axis',(-1.,0.,0.));
#300=DIRECTION('',(0.,-1.,0.));
#301=DIRECTION('center_axis',(0.,-1.,0.));
#302=DIRECTION('ref_axis',(0.,0.,-1.));
#303=DIRECTION('center_axis',(0.,-1.,0.));
#304=DIRECTION('ref_axis',(-1.,0.,0.));
#305=DIRECTION('',(1.,0.,0.));
#306=DIRECTION('center_axis',(0.,-1.,0.));
#307=DIRECTION('ref_axis',(0.,0.,-1.));
#308=DIRECTION('center_axis',(0.,-1.,0.));
#309=DIRECTION('ref_axis',(-1.,0.,0.));
#310=DIRECTION('center_axis',(0.,-1.,0.));
#311=DIRECTION('ref_axis',(-1.,0.,0.));
#312=DIRECTION('',(0.,-1.,0.));
#313=DIRECTION('center_axis',(0.,-1.,0.));
#314=DIRECTION('ref_axis',(-1.,0.,0.));
#315=DIRECTION('center_axis',(0.,-1.,0.));
#316=DIRECTION('ref_axis',(0.,0.,-1.));
#317=DIRECTION('',(0.999999999847691,0.,-1.74532925199228E-5));
#318=DIRECTION('center_axis',(0.,-1.,0.));
#319=DIRECTION('ref_axis',(-1.,0.,0.));
#320=DIRECTION('center_axis',(0.,-1.,0.));
#321=DIRECTION('ref_axis',(-1.,0.,0.));
#322=DIRECTION('',(0.,1.,0.));
#323=DIRECTION('center_axis',(1.74532925199228E-5,0.,0.999999999847691));
#324=DIRECTION('ref_axis',(0.999999999847691,0.,-1.74532925199227E-5));
#325=DIRECTION('center_axis',(0.,0.,1.));
#326=DIRECTION('ref_axis',(1.,0.,0.));
#327=CARTESIAN_POINT('',(0.,0.,0.));
#328=CARTESIAN_POINT('Origin',(-317.50076599402,61.3274357620964,0.00554143374500882));
#329=CARTESIAN_POINT('',(-317.599999951627,113.,0.00554316570429592));
#330=CARTESIAN_POINT('',(-316.599999951779,113.,0.00552571241172473));
#331=CARTESIAN_POINT('',(-317.599999951627,113.,0.00554316570429592));
#332=CARTESIAN_POINT('',(-318.599999951474,114.,0.00556061899686711));
#333=CARTESIAN_POINT('Origin',(-318.599999951474,113.,0.00556061899686711));
#334=CARTESIAN_POINT('',(-318.599999951474,115.,0.00556061899686711));
#335=CARTESIAN_POINT('',(-318.599999951474,114.,0.00556061899686711));
#336=CARTESIAN_POINT('Origin',(-318.599999951474,113.,0.00556061899686711));
#337=CARTESIAN_POINT('Origin',(-317.50076599402,61.3274357620964,0.00554143374500882));
#338=CARTESIAN_POINT('',(-326.599999950256,114.,0.00570024533686819));
#339=CARTESIAN_POINT('',(-326.599999950256,114.,0.00570024533686819));
#340=CARTESIAN_POINT('',(-326.599999950256,115.,0.00570024533686819));
#341=CARTESIAN_POINT('',(-326.599999950256,115.,0.00570024533686819));
#342=CARTESIAN_POINT('',(-318.599999951474,115.,0.00556061899686711));
#343=CARTESIAN_POINT('Origin',(-317.500766042378,61.3274357620964,0.));
#344=CARTESIAN_POINT('',(-316.6,113.,0.));
#345=CARTESIAN_POINT('',(-317.6,113.,0.));
#346=CARTESIAN_POINT('',(-316.6,113.,0.));
#347=CARTESIAN_POINT('',(-318.6,115.,0.));
#348=CARTESIAN_POINT('Origin',(-318.6,113.,0.));
#349=CARTESIAN_POINT('',(-318.6,114.,0.));
#350=CARTESIAN_POINT('',(-318.6,115.,0.));
#351=CARTESIAN_POINT('Origin',(-318.6,113.,0.));
#352=CARTESIAN_POINT('Origin',(-317.500766042378,61.3274357620964,0.));
#353=CARTESIAN_POINT('',(-317.6,0.,0.));
#354=CARTESIAN_POINT('',(-317.6,113.,0.));
#355=CARTESIAN_POINT('',(-316.6,0.,0.));
#356=CARTESIAN_POINT('',(-317.6,0.,0.));
#357=CARTESIAN_POINT('',(-316.6,0.,0.));
#358=CARTESIAN_POINT('Origin',(0.,113.,0.));
#359=CARTESIAN_POINT('Origin',(0.,115.,0.));
#360=CARTESIAN_POINT('Origin',(0.,113.,0.));
#361=CARTESIAN_POINT('Origin',(-318.599999951474,115.,0.00556061899684739));
#362=CARTESIAN_POINT('',(-326.6,115.,0.));
#363=CARTESIAN_POINT('Origin',(0.,115.,0.));
#364=CARTESIAN_POINT('',(-318.6,115.,0.));
#365=CARTESIAN_POINT('Origin',(0.,61.359572107478,0.));
#366=CARTESIAN_POINT('',(-326.6,114.,0.));
#367=CARTESIAN_POINT('Origin',(0.,114.,0.));
#368=CARTESIAN_POINT('',(-326.6,115.,0.));
#369=CARTESIAN_POINT('Origin',(-326.599999950256,114.,0.00570024533700678));
#370=CARTESIAN_POINT('Origin',(0.,114.,0.));
#371=CARTESIAN_POINT('',(-326.6,114.,0.));
#372=CARTESIAN_POINT('Origin',(0.,113.,0.));
#373=CARTESIAN_POINT('Origin',(0.,113.,0.));
#374=CARTESIAN_POINT('Origin',(0.,61.359572107478,0.));
#375=CARTESIAN_POINT('',(-317.599999951627,0.,0.00554316570429592));
#376=CARTESIAN_POINT('',(-317.599999951627,113.,0.00554316570429592));
#377=CARTESIAN_POINT('Origin',(0.,0.,0.));
#378=CARTESIAN_POINT('Origin',(-317.599999951627,0.,0.00554316570432747));
#379=CARTESIAN_POINT('',(-316.599999951779,0.,0.00552571241172473));
#380=CARTESIAN_POINT('',(-317.599999951627,0.,0.00554316570429592));
#381=CARTESIAN_POINT('Origin',(0.,0.,0.));
#382=CARTESIAN_POINT('Origin',(0.,61.359572107478,0.));
#383=CARTESIAN_POINT('',(-316.599999951779,0.,0.00552571241172473));
#384=CARTESIAN_POINT('Origin',(-317.50076599402,61.3274357620964,0.00554143374500882));
#385=CARTESIAN_POINT('Origin',(-317.500766042378,61.3274357620964,0.));
#386=UNCERTAINTY_MEASURE_WITH_UNIT(LENGTH_MEASURE(0.01),#390,
'DISTANCE_ACCURACY_VALUE',
'Maximum model space distance between geometric entities at asserted c
onnectivities');
#387=UNCERTAINTY_MEASURE_WITH_UNIT(LENGTH_MEASURE(1.E-6),#390,
'DISTANCE_ACCURACY_VALUE',
'Maximum model space distance between geometric entities at asserted c
onnectivities');
#388=(
GEOMETRIC_REPRESENTATION_CONTEXT(3)
GLOBAL_UNCERTAINTY_ASSIGNED_CONTEXT((#386))
GLOBAL_UNIT_ASSIGNED_CONTEXT((#390,#393,#391))
REPRESENTATION_CONTEXT('','3D')
);
#389=(
GEOMETRIC_REPRESENTATION_CONTEXT(3)
GLOBAL_UNCERTAINTY_ASSIGNED_CONTEXT((#387))
GLOBAL_UNIT_ASSIGNED_CONTEXT((#390,#393,#391))
REPRESENTATION_CONTEXT('','3D')
);
#390=(
LENGTH_UNIT()
NAMED_UNIT(*)
SI_UNIT(.MILLI.,.METRE.)
);
#391=(
NAMED_UNIT(*)
SI_UNIT($,.STERADIAN.)
SOLID_ANGLE_UNIT()
);
#392=DIMENSIONAL_EXPONENTS(0.,0.,0.,0.,0.,0.,0.);
#393=(
CONVERSION_BASED_UNIT('degree',#395)
NAMED_UNIT(#392)
PLANE_ANGLE_UNIT()
);
#394=(
NAMED_UNIT(*)
PLANE_ANGLE_UNIT()
SI_UNIT($,.RADIAN.)
);
#395=PLANE_ANGLE_MEASURE_WITH_UNIT(PLANE_ANGLE_MEASURE(0.01745329252),#394);
#396=SHAPE_DEFINITION_REPRESENTATION(#397,#398);
#397=PRODUCT_DEFINITION_SHAPE('',$,#400);
#398=SHAPE_REPRESENTATION('',(#230),#388);
#399=PRODUCT_DEFINITION_CONTEXT('part definition',#404,'design');
#400=PRODUCT_DEFINITION('HSKMH-8','HSKMH-8',#401,#399);
#401=PRODUCT_DEFINITION_FORMATION('',$,#406);
#402=PRODUCT_RELATED_PRODUCT_CATEGORY('HSKMH-8','HSKMH-8',(#406));
#403=APPLICATION_PROTOCOL_DEFINITION('international standard',
'automotive_design',2009,#404);
#404=APPLICATION_CONTEXT(
'Core Data for Automotive Mechanical Design Process');
#405=PRODUCT_CONTEXT('part definition',#404,'mechanical');
#406=PRODUCT('HSKMH-8','HSKMH-8',$,(#405));
#407=PRESENTATION_STYLE_ASSIGNMENT((#408));
#408=SURFACE_STYLE_USAGE(.BOTH.,#409);
#409=SURFACE_SIDE_STYLE($,(#410));
#410=SURFACE_STYLE_FILL_AREA(#411);
#411=FILL_AREA_STYLE($,(#412));
#412=FILL_AREA_STYLE_COLOUR($,#413);
#413=COLOUR_RGB('',0.898039215686275,0.898039215686275,0.898039215686275);
ENDSEC;
END-ISO-10303-21;
