ISO-10303-21;
HEADER;
/****************************************************************
 * Generated by software with PDElib inside                    *
 * PDElib Version v51a, created Wed 11/30/2011                  *
 * ITI Transcendata (http://www.transcendata.com/)              *
 ****************************************************************/
FILE_DESCRIPTION((''),'2;1');
FILE_NAME('C:\\Vault_WS\\Designs\\CQC_ConvertFile\\Output\\HPP_200-400.stp','2014-06-05T15:16:37',(''),(''),'Autodesk Inventor 2013','Autodesk Inventor 2013','');
FILE_SCHEMA(('AUTOMOTIVE_DESIGN { 1 2 10303 214 0 1 1 1 }'));
ENDSEC;
DATA;
#5=APPLICATION_CONTEXT('automotive design');
#6=APPLICATION_PROTOCOL_DEFINITION('Draft International Standard','automotive_design',1998,#5);
#7=PRODUCT_CONTEXT('None',#5,'mechanical');
#8=PRODUCT('HPP_200-400','HPP_200-400','None',(#7));
#9=PRODUCT_RELATED_PRODUCT_CATEGORY('part','description',(#8));
#10=PRODUCT_DEFINITION_FORMATION('None','None',#8);
#11=PRODUCT_DEFINITION_CONTEXT('part definition',#5,'design');
#12=PRODUCT_DEFINITION('None','None',#10,#11);
#18=(NAMED_UNIT(*)PLANE_ANGLE_UNIT()SI_UNIT($,.RADIAN.));
#19=DIMENSIONAL_EXPONENTS(0.0,0.0,0.0,0.0,0.0,0.0,0.0);
#20=PLANE_ANGLE_MEASURE_WITH_UNIT(PLANE_ANGLE_MEASURE(0.0174532925),#18);
#24=(CONVERSION_BASED_UNIT('DEGREE',#20)NAMED_UNIT(#19)PLANE_ANGLE_UNIT());
#28=(NAMED_UNIT(*)SI_UNIT($,.STERADIAN.)SOLID_ANGLE_UNIT());
#32=(LENGTH_UNIT()NAMED_UNIT(*)SI_UNIT(.MILLI.,.METRE.));
#34=UNCERTAINTY_MEASURE_WITH_UNIT(LENGTH_MEASURE(0.01),#32,'DISTANCE_ACCURACY_VALUE','');
#36=(GEOMETRIC_REPRESENTATION_CONTEXT(3)GLOBAL_UNCERTAINTY_ASSIGNED_CONTEXT((#34))GLOBAL_UNIT_ASSIGNED_CONTEXT((#24,#28,#32))REPRESENTATION_CONTEXT('None','None'));
#37=AXIS2_PLACEMENT_3D('',#38,#39,#40);
#38=CARTESIAN_POINT('',(0.0,0.0,0.0));
#39=DIRECTION('',(0.0,0.0,1.0));
#40=DIRECTION('',(1.0,0.0,0.0));
#41=SHAPE_REPRESENTATION('',(#37),#36);
#42=PRODUCT_DEFINITION_SHAPE('','',#12);
#43=SHAPE_DEFINITION_REPRESENTATION(#42,#41);
#49=(NAMED_UNIT(*)PLANE_ANGLE_UNIT()SI_UNIT($,.RADIAN.));
#50=DIMENSIONAL_EXPONENTS(0.0,0.0,0.0,0.0,0.0,0.0,0.0);
#51=PLANE_ANGLE_MEASURE_WITH_UNIT(PLANE_ANGLE_MEASURE(0.0174532925),#49);
#55=(CONVERSION_BASED_UNIT('DEGREE',#51)NAMED_UNIT(#50)PLANE_ANGLE_UNIT());
#59=(NAMED_UNIT(*)SI_UNIT($,.STERADIAN.)SOLID_ANGLE_UNIT());
#63=(LENGTH_UNIT()NAMED_UNIT(*)SI_UNIT(.MILLI.,.METRE.));
#65=UNCERTAINTY_MEASURE_WITH_UNIT(LENGTH_MEASURE(0.000001),#63,'DISTANCE_ACCURACY_VALUE','');
#67=(GEOMETRIC_REPRESENTATION_CONTEXT(3)GLOBAL_UNCERTAINTY_ASSIGNED_CONTEXT((#65))GLOBAL_UNIT_ASSIGNED_CONTEXT((#55,#59,#63))REPRESENTATION_CONTEXT('','3D'));
#68=CARTESIAN_POINT('',(-3.315866E-014,139.99999999999989,0.0));
#69=DIRECTION('',(2.368476E-016,-1.0,0.0));
#70=DIRECTION('',(0.0,0.0,-1.0));
#71=AXIS2_PLACEMENT_3D('',#68,#69,#70);
#72=TOROIDAL_SURFACE('',#71,193.00000000000006,10.0);
#73=CARTESIAN_POINT('',(203.0,139.99999999999994,0.0));
#74=VERTEX_POINT('',#73);
#75=CARTESIAN_POINT('',(-3.315866E-014,139.99999999999989,0.0));
#76=DIRECTION('',(0.0,-1.0,0.0));
#77=DIRECTION('',(-1.0,0.0,0.0));
#78=AXIS2_PLACEMENT_3D('',#75,#76,#77);
#79=CIRCLE('',#78,203.00000000000006);
#80=EDGE_CURVE('',#74,#74,#79,.T.);
#81=ORIENTED_EDGE('',*,*,#80,.T.);
#82=EDGE_LOOP('',(#81));
#83=FACE_OUTER_BOUND('',#82,.T.);
#84=CARTESIAN_POINT('',(193.0,149.99999999999997,-4.727137E-014));
#85=VERTEX_POINT('',#84);
#86=CARTESIAN_POINT('',(-3.552714E-014,149.99999999999991,0.0));
#87=DIRECTION('',(0.0,1.0,0.0));
#88=DIRECTION('',(-1.0,0.0,0.0));
#89=AXIS2_PLACEMENT_3D('',#86,#87,#88);
#90=CIRCLE('',#89,193.00000000000006);
#91=EDGE_CURVE('',#85,#85,#90,.T.);
#92=ORIENTED_EDGE('',*,*,#91,.T.);
#93=EDGE_LOOP('',(#92));
#94=FACE_BOUND('',#93,.T.);
#95=ADVANCED_FACE('',(#83,#94),#72,.F.);
#96=CARTESIAN_POINT('',(101.49999999999999,149.99999999999994,0.0));
#97=DIRECTION('',(0.0,-1.0,0.0));
#98=DIRECTION('',(0.0,0.0,-1.0));
#99=AXIS2_PLACEMENT_3D('',#96,#97,#98);
#100=PLANE('',#99);
#101=ORIENTED_EDGE('',*,*,#91,.F.);
#102=EDGE_LOOP('',(#101));
#103=FACE_OUTER_BOUND('',#102,.T.);
#104=ADVANCED_FACE('',(#103),#100,.T.);
#105=CARTESIAN_POINT('',(-1.776357E-014,74.999999999999957,0.0));
#106=DIRECTION('',(2.368476E-016,-1.0,0.0));
#107=DIRECTION('',(1.0,0.0,0.0));
#108=AXIS2_PLACEMENT_3D('',#105,#106,#107);
#109=CYLINDRICAL_SURFACE('',#108,203.00000000000006);
#110=CARTESIAN_POINT('',(203.0,0.0,0.0));
#111=VERTEX_POINT('',#110);
#112=CARTESIAN_POINT('',(1.142462E-029,-4.808653E-014,0.0));
#113=DIRECTION('',(0.0,-1.0,0.0));
#114=DIRECTION('',(1.0,0.0,0.0));
#115=AXIS2_PLACEMENT_3D('',#112,#113,#114);
#116=CIRCLE('',#115,203.0);
#117=EDGE_CURVE('',#111,#111,#116,.T.);
#118=ORIENTED_EDGE('',*,*,#117,.T.);
#119=EDGE_LOOP('',(#118));
#120=FACE_OUTER_BOUND('',#119,.T.);
#121=ORIENTED_EDGE('',*,*,#80,.F.);
#122=EDGE_LOOP('',(#121));
#123=FACE_BOUND('',#122,.T.);
#124=ADVANCED_FACE('',(#120,#123),#109,.F.);
#125=CARTESIAN_POINT('',(-3.363236E-014,141.99999999999989,0.0));
#126=DIRECTION('',(2.368476E-016,-1.0,0.0));
#127=DIRECTION('',(0.0,0.0,-1.0));
#128=AXIS2_PLACEMENT_3D('',#125,#126,#127);
#129=TOROIDAL_SURFACE('',#128,195.00000000000003,10.0);
#130=CARTESIAN_POINT('',(195.0,151.99999999999994,0.0));
#131=VERTEX_POINT('',#130);
#132=CARTESIAN_POINT('',(-3.600083E-014,151.99999999999991,0.0));
#133=DIRECTION('',(0.0,-1.0,0.0));
#134=DIRECTION('',(-1.0,0.0,0.0));
#135=AXIS2_PLACEMENT_3D('',#132,#133,#134);
#136=CIRCLE('',#135,195.00000000000003);
#137=EDGE_CURVE('',#131,#131,#136,.T.);
#138=ORIENTED_EDGE('',*,*,#137,.T.);
#139=EDGE_LOOP('',(#138));
#140=FACE_OUTER_BOUND('',#139,.T.);
#141=CARTESIAN_POINT('',(205.0,141.99999999999994,-5.021052E-014));
#142=VERTEX_POINT('',#141);
#143=CARTESIAN_POINT('',(-3.363236E-014,141.99999999999989,0.0));
#144=DIRECTION('',(0.0,1.0,0.0));
#145=DIRECTION('',(-1.0,0.0,0.0));
#146=AXIS2_PLACEMENT_3D('',#143,#144,#145);
#147=CIRCLE('',#146,205.00000000000003);
#148=EDGE_CURVE('',#142,#142,#147,.T.);
#149=ORIENTED_EDGE('',*,*,#148,.T.);
#150=EDGE_LOOP('',(#149));
#151=FACE_BOUND('',#150,.T.);
#152=ADVANCED_FACE('',(#140,#151),#129,.T.);
#153=CARTESIAN_POINT('',(102.49999999999999,151.99999999999991,0.0));
#154=DIRECTION('',(0.0,1.0,0.0));
#155=DIRECTION('',(0.0,0.0,1.0));
#156=AXIS2_PLACEMENT_3D('',#153,#154,#155);
#157=PLANE('',#156);
#158=ORIENTED_EDGE('',*,*,#137,.F.);
#159=EDGE_LOOP('',(#158));
#160=FACE_OUTER_BOUND('',#159,.T.);
#161=ADVANCED_FACE('',(#160),#157,.T.);
#162=CARTESIAN_POINT('',(-1.800042E-014,75.999999999999929,0.0));
#163=DIRECTION('',(2.368476E-016,-1.0,0.0));
#164=DIRECTION('',(1.0,0.0,0.0));
#165=AXIS2_PLACEMENT_3D('',#162,#163,#164);
#166=CYLINDRICAL_SURFACE('',#165,205.00000000000003);
#167=CARTESIAN_POINT('',(205.0,-3.533837E-014,0.0));
#168=VERTEX_POINT('',#167);
#169=CARTESIAN_POINT('',(1.990641E-029,-8.389123E-014,0.0));
#170=DIRECTION('',(0.0,-1.0,0.0));
#171=DIRECTION('',(1.0,0.0,0.0));
#172=AXIS2_PLACEMENT_3D('',#169,#170,#171);
#173=CIRCLE('',#172,205.0);
#174=EDGE_CURVE('',#168,#168,#173,.T.);
#175=ORIENTED_EDGE('',*,*,#174,.F.);
#176=EDGE_LOOP('',(#175));
#177=FACE_OUTER_BOUND('',#176,.T.);
#178=ORIENTED_EDGE('',*,*,#148,.F.);
#179=EDGE_LOOP('',(#178));
#180=FACE_BOUND('',#179,.T.);
#181=ADVANCED_FACE('',(#177,#180),#166,.T.);
#182=CARTESIAN_POINT('',(204.0,-1.766919E-014,0.0));
#183=DIRECTION('',(0.0,-1.0,0.0));
#184=DIRECTION('',(0.0,0.0,-1.0));
#185=AXIS2_PLACEMENT_3D('',#182,#183,#184);
#186=PLANE('',#185);
#187=ORIENTED_EDGE('',*,*,#174,.T.);
#188=EDGE_LOOP('',(#187));
#189=FACE_OUTER_BOUND('',#188,.T.);
#190=ORIENTED_EDGE('',*,*,#117,.F.);
#191=EDGE_LOOP('',(#190));
#192=FACE_BOUND('',#191,.T.);
#193=ADVANCED_FACE('',(#189,#192),#186,.T.);
#194=CLOSED_SHELL('',(#95,#104,#124,#152,#161,#181,#193));
#195=MANIFOLD_SOLID_BREP('Solid2',#194);
#196=COLOUR_RGB('',0.152941182255745,0.443137258291245,0.878431379795074);
#197=FILL_AREA_STYLE_COLOUR('',#196);
#198=FILL_AREA_STYLE('',(#197));
#199=SURFACE_STYLE_FILL_AREA(#198);
#200=SURFACE_SIDE_STYLE('',(#199));
#201=SURFACE_STYLE_USAGE(.BOTH.,#200);
#202=PRESENTATION_STYLE_ASSIGNMENT((#201));
#203=STYLED_ITEM('',(#202),#95);
#204=STYLED_ITEM('',(#202),#104);
#205=STYLED_ITEM('',(#202),#124);
#206=STYLED_ITEM('',(#202),#152);
#207=STYLED_ITEM('',(#202),#161);
#208=STYLED_ITEM('',(#202),#181);
#209=STYLED_ITEM('',(#202),#193);
#210=MECHANICAL_DESIGN_GEOMETRIC_PRESENTATION_REPRESENTATION('',(#203,#204,#205,#206,#207,#208,#209,#218),#67);
#211=COLOUR_RGB('Textured - Gray',0.5,0.5,0.5);
#212=FILL_AREA_STYLE_COLOUR('Textured - Gray',#211);
#213=FILL_AREA_STYLE('Textured - Gray',(#212));
#214=SURFACE_STYLE_FILL_AREA(#213);
#215=SURFACE_SIDE_STYLE('Textured - Gray',(#214));
#216=SURFACE_STYLE_USAGE(.BOTH.,#215);
#217=PRESENTATION_STYLE_ASSIGNMENT((#216));
#218=STYLED_ITEM('',(#217),#195);
#219=ADVANCED_BREP_SHAPE_REPRESENTATION('ABSR',(#195),#36);
#220=SHAPE_REPRESENTATION_RELATIONSHIP('SRR','None',#219,#41);
ENDSEC;
END-ISO-10303-21;
