ISO-10303-21;
HEADER;
/****************************************************************
 * Generated by software with PDElib inside                    *
 * PDElib Version v51a, created Wed 11/30/2011                  *
 * ITI Transcendata (http://www.transcendata.com/)              *
 ****************************************************************/
FILE_DESCRIPTION((''),'2;1');
FILE_NAME('C:\\Vault_WS\\Designs\\CQC_ConvertFile\\Output\\HPL-125.stp','2014-06-05T15:14:27',(''),(''),'Autodesk Inventor 2013','Autodesk Inventor 2013','');
FILE_SCHEMA(('AUTOMOTIVE_DESIGN { 1 2 10303 214 0 1 1 1 }'));
ENDSEC;
DATA;
#5=APPLICATION_CONTEXT('automotive design');
#6=APPLICATION_PROTOCOL_DEFINITION('Draft International Standard','automotive_design',1998,#5);
#7=PRODUCT_CONTEXT('None',#5,'mechanical');
#8=PRODUCT('HPL-125','HPL-125','None',(#7));
#9=PRODUCT_RELATED_PRODUCT_CATEGORY('part','description',(#8));
#10=PRODUCT_DEFINITION_FORMATION('None','None',#8);
#11=PRODUCT_DEFINITION_CONTEXT('part definition',#5,'design');
#12=PRODUCT_DEFINITION('None','None',#10,#11);
#18=(NAMED_UNIT(*)PLANE_ANGLE_UNIT()SI_UNIT($,.RADIAN.));
#19=DIMENSIONAL_EXPONENTS(0.0,0.0,0.0,0.0,0.0,0.0,0.0);
#20=PLANE_ANGLE_MEASURE_WITH_UNIT(PLANE_ANGLE_MEASURE(0.0174532925),#18);
#24=(CONVERSION_BASED_UNIT('DEGREE',#20)NAMED_UNIT(#19)PLANE_ANGLE_UNIT());
#28=(NAMED_UNIT(*)SI_UNIT($,.STERADIAN.)SOLID_ANGLE_UNIT());
#32=(LENGTH_UNIT()NAMED_UNIT(*)SI_UNIT(.MILLI.,.METRE.));
#34=UNCERTAINTY_MEASURE_WITH_UNIT(LENGTH_MEASURE(0.01),#32,'DISTANCE_ACCURACY_VALUE','');
#36=(GEOMETRIC_REPRESENTATION_CONTEXT(3)GLOBAL_UNCERTAINTY_ASSIGNED_CONTEXT((#34))GLOBAL_UNIT_ASSIGNED_CONTEXT((#24,#28,#32))REPRESENTATION_CONTEXT('None','None'));
#37=AXIS2_PLACEMENT_3D('',#38,#39,#40);
#38=CARTESIAN_POINT('',(0.0,0.0,0.0));
#39=DIRECTION('',(0.0,0.0,1.0));
#40=DIRECTION('',(1.0,0.0,0.0));
#41=SHAPE_REPRESENTATION('',(#37),#36);
#42=PRODUCT_DEFINITION_SHAPE('','',#12);
#43=SHAPE_DEFINITION_REPRESENTATION(#42,#41);
#49=(NAMED_UNIT(*)PLANE_ANGLE_UNIT()SI_UNIT($,.RADIAN.));
#50=DIMENSIONAL_EXPONENTS(0.0,0.0,0.0,0.0,0.0,0.0,0.0);
#51=PLANE_ANGLE_MEASURE_WITH_UNIT(PLANE_ANGLE_MEASURE(0.0174532925),#49);
#55=(CONVERSION_BASED_UNIT('DEGREE',#51)NAMED_UNIT(#50)PLANE_ANGLE_UNIT());
#59=(NAMED_UNIT(*)SI_UNIT($,.STERADIAN.)SOLID_ANGLE_UNIT());
#63=(LENGTH_UNIT()NAMED_UNIT(*)SI_UNIT(.MILLI.,.METRE.));
#65=UNCERTAINTY_MEASURE_WITH_UNIT(LENGTH_MEASURE(0.000001),#63,'DISTANCE_ACCURACY_VALUE','');
#67=(GEOMETRIC_REPRESENTATION_CONTEXT(3)GLOBAL_UNCERTAINTY_ASSIGNED_CONTEXT((#65))GLOBAL_UNIT_ASSIGNED_CONTEXT((#55,#59,#63))REPRESENTATION_CONTEXT('','3D'));
#68=CARTESIAN_POINT('',(-34.999999999999929,-148.82787734890593,0.0));
#69=DIRECTION('',(-4.873763E-016,1.0,0.0));
#70=DIRECTION('',(1.0,0.0,0.0));
#71=AXIS2_PLACEMENT_3D('',#68,#69,#70);
#72=CYLINDRICAL_SURFACE('',#71,4.0);
#73=CARTESIAN_POINT('',(-39.000000000000014,35.999999999999943,4.898587E-016));
#74=VERTEX_POINT('',#73);
#75=CARTESIAN_POINT('',(-35.000000000000014,35.999999999999943,0.0));
#76=DIRECTION('',(0.0,1.0,0.0));
#77=DIRECTION('',(1.0,0.0,0.0));
#78=AXIS2_PLACEMENT_3D('',#75,#76,#77);
#79=CIRCLE('',#78,4.0);
#80=EDGE_CURVE('',#74,#74,#79,.T.);
#81=ORIENTED_EDGE('',*,*,#80,.F.);
#82=EDGE_LOOP('',(#81));
#83=FACE_OUTER_BOUND('',#82,.T.);
#84=CARTESIAN_POINT('',(-31.000000000000018,36.999999999999964,0.0));
#85=VERTEX_POINT('',#84);
#86=CARTESIAN_POINT('',(-35.000000000000014,36.999999999999957,0.0));
#87=DIRECTION('',(0.0,-1.0,0.0));
#88=DIRECTION('',(1.0,0.0,0.0));
#89=AXIS2_PLACEMENT_3D('',#86,#87,#88);
#90=CIRCLE('',#89,4.0);
#91=EDGE_CURVE('',#85,#85,#90,.T.);
#92=ORIENTED_EDGE('',*,*,#91,.F.);
#93=EDGE_LOOP('',(#92));
#94=FACE_BOUND('',#93,.T.);
#95=ADVANCED_FACE('',(#83,#94),#72,.F.);
#96=CARTESIAN_POINT('',(35.000000000000071,-148.82787734890587,0.0));
#97=DIRECTION('',(-4.873763E-016,1.0,0.0));
#98=DIRECTION('',(1.0,0.0,0.0));
#99=AXIS2_PLACEMENT_3D('',#96,#97,#98);
#100=CYLINDRICAL_SURFACE('',#99,4.0);
#101=CARTESIAN_POINT('',(30.999999999999982,35.999999999999979,4.898587E-016));
#102=VERTEX_POINT('',#101);
#103=CARTESIAN_POINT('',(34.999999999999986,35.999999999999979,0.0));
#104=DIRECTION('',(0.0,1.0,0.0));
#105=DIRECTION('',(1.0,0.0,0.0));
#106=AXIS2_PLACEMENT_3D('',#103,#104,#105);
#107=CIRCLE('',#106,4.0);
#108=EDGE_CURVE('',#102,#102,#107,.T.);
#109=ORIENTED_EDGE('',*,*,#108,.F.);
#110=EDGE_LOOP('',(#109));
#111=FACE_OUTER_BOUND('',#110,.T.);
#112=CARTESIAN_POINT('',(38.999999999999979,37.0,0.0));
#113=VERTEX_POINT('',#112);
#114=CARTESIAN_POINT('',(34.999999999999986,36.999999999999993,0.0));
#115=DIRECTION('',(0.0,-1.0,0.0));
#116=DIRECTION('',(1.0,0.0,0.0));
#117=AXIS2_PLACEMENT_3D('',#114,#115,#116);
#118=CIRCLE('',#117,4.0);
#119=EDGE_CURVE('',#113,#113,#118,.T.);
#120=ORIENTED_EDGE('',*,*,#119,.F.);
#121=EDGE_LOOP('',(#120));
#122=FACE_BOUND('',#121,.T.);
#123=ADVANCED_FACE('',(#111,#122),#100,.F.);
#124=CARTESIAN_POINT('',(-2.436882E-016,0.49999999999997,0.0));
#125=DIRECTION('',(4.873763E-016,-1.0,0.0));
#126=DIRECTION('',(1.0,0.0,0.0));
#127=AXIS2_PLACEMENT_3D('',#124,#125,#126);
#128=CYLINDRICAL_SURFACE('',#127,63.999999999999993);
#129=CARTESIAN_POINT('',(63.999999999999993,0.0,0.0));
#130=VERTEX_POINT('',#129);
#131=CARTESIAN_POINT('',(1.509929E-029,-3.122502E-014,0.0));
#132=DIRECTION('',(0.0,-1.0,0.0));
#133=DIRECTION('',(1.0,0.0,0.0));
#134=AXIS2_PLACEMENT_3D('',#131,#132,#133);
#135=CIRCLE('',#134,63.999999999999993);
#136=EDGE_CURVE('',#130,#130,#135,.T.);
#137=ORIENTED_EDGE('',*,*,#136,.F.);
#138=EDGE_LOOP('',(#137));
#139=FACE_OUTER_BOUND('',#138,.T.);
#140=CARTESIAN_POINT('',(63.999999999999993,1.000000000000002,0.0));
#141=VERTEX_POINT('',#140);
#142=CARTESIAN_POINT('',(-4.873763E-016,0.999999999999971,0.0));
#143=DIRECTION('',(0.0,-1.0,0.0));
#144=DIRECTION('',(1.0,0.0,0.0));
#145=AXIS2_PLACEMENT_3D('',#142,#143,#144);
#146=CIRCLE('',#145,63.999999999999993);
#147=EDGE_CURVE('',#141,#141,#146,.T.);
#148=ORIENTED_EDGE('',*,*,#147,.T.);
#149=EDGE_LOOP('',(#148));
#150=FACE_BOUND('',#149,.T.);
#151=ADVANCED_FACE('',(#139,#150),#128,.T.);
#152=CARTESIAN_POINT('',(62.5,2.220446E-015,0.0));
#153=DIRECTION('',(0.0,-1.0,0.0));
#154=DIRECTION('',(0.0,0.0,-1.0));
#155=AXIS2_PLACEMENT_3D('',#152,#153,#154);
#156=PLANE('',#155);
#157=ORIENTED_EDGE('',*,*,#136,.T.);
#158=EDGE_LOOP('',(#157));
#159=FACE_OUTER_BOUND('',#158,.T.);
#160=CARTESIAN_POINT('',(61.000000000000007,4.440892E-015,0.0));
#161=VERTEX_POINT('',#160);
#162=CARTESIAN_POINT('',(1.220269E-029,-2.525757E-014,0.0));
#163=DIRECTION('',(0.0,-1.0,0.0));
#164=DIRECTION('',(1.0,0.0,0.0));
#165=AXIS2_PLACEMENT_3D('',#162,#163,#164);
#166=CIRCLE('',#165,61.000000000000007);
#167=EDGE_CURVE('',#161,#161,#166,.T.);
#168=ORIENTED_EDGE('',*,*,#167,.F.);
#169=EDGE_LOOP('',(#168));
#170=FACE_BOUND('',#169,.T.);
#171=ADVANCED_FACE('',(#159,#170),#156,.T.);
#172=CARTESIAN_POINT('',(-8.755456E-015,17.964466094067298,0.0));
#173=DIRECTION('',(4.873763E-016,-1.0,0.0));
#174=DIRECTION('',(1.0,0.0,0.0));
#175=AXIS2_PLACEMENT_3D('',#172,#173,#174);
#176=CYLINDRICAL_SURFACE('',#175,61.000000000000007);
#177=CARTESIAN_POINT('',(60.999999999999979,35.928932188134652,0.0));
#178=VERTEX_POINT('',#177);
#179=CARTESIAN_POINT('',(-1.751091E-014,35.928932188134624,0.0));
#180=DIRECTION('',(0.0,-1.0,0.0));
#181=DIRECTION('',(1.0,0.0,0.0));
#182=AXIS2_PLACEMENT_3D('',#179,#180,#181);
#183=CIRCLE('',#182,61.0);
#184=EDGE_CURVE('',#178,#178,#183,.T.);
#185=ORIENTED_EDGE('',*,*,#184,.F.);
#186=EDGE_LOOP('',(#185));
#187=FACE_OUTER_BOUND('',#186,.T.);
#188=ORIENTED_EDGE('',*,*,#167,.T.);
#189=EDGE_LOOP('',(#188));
#190=FACE_BOUND('',#189,.T.);
#191=ADVANCED_FACE('',(#187,#190),#176,.F.);
#192=CARTESIAN_POINT('',(-1.874667E-014,38.464466094067319,0.0));
#193=DIRECTION('',(4.873763E-016,-1.0,0.0));
#194=DIRECTION('',(1.0,0.0,0.0));
#195=AXIS2_PLACEMENT_3D('',#192,#193,#194);
#196=CONICAL_SURFACE('',#195,58.464466094067305,44.999999999999979);
#197=CARTESIAN_POINT('',(55.928932188134596,41.000000000000028,0.0));
#198=VERTEX_POINT('',#197);
#199=CARTESIAN_POINT('',(-1.998243E-014,41.000000000000007,0.0));
#200=DIRECTION('',(0.0,-1.0,0.0));
#201=DIRECTION('',(1.0,0.0,0.0));
#202=AXIS2_PLACEMENT_3D('',#199,#200,#201);
#203=CIRCLE('',#202,55.928932188134617);
#204=EDGE_CURVE('',#198,#198,#203,.T.);
#205=ORIENTED_EDGE('',*,*,#204,.F.);
#206=EDGE_LOOP('',(#205));
#207=FACE_OUTER_BOUND('',#206,.T.);
#208=ORIENTED_EDGE('',*,*,#184,.T.);
#209=EDGE_LOOP('',(#208));
#210=FACE_BOUND('',#209,.T.);
#211=ADVANCED_FACE('',(#207,#210),#196,.F.);
#212=CARTESIAN_POINT('',(52.343145750507638,41.000000000000028,0.0));
#213=DIRECTION('',(0.0,-1.0,0.0));
#214=DIRECTION('',(0.0,0.0,-1.0));
#215=AXIS2_PLACEMENT_3D('',#212,#213,#214);
#216=PLANE('',#215);
#217=ORIENTED_EDGE('',*,*,#204,.T.);
#218=EDGE_LOOP('',(#217));
#219=FACE_OUTER_BOUND('',#218,.T.);
#220=CARTESIAN_POINT('',(48.757359312880688,41.000000000000021,0.0));
#221=VERTEX_POINT('',#220);
#222=CARTESIAN_POINT('',(-1.998243E-014,41.0,0.0));
#223=DIRECTION('',(0.0,-1.0,0.0));
#224=DIRECTION('',(1.0,0.0,0.0));
#225=AXIS2_PLACEMENT_3D('',#222,#223,#224);
#226=CIRCLE('',#225,48.757359312880702);
#227=EDGE_CURVE('',#221,#221,#226,.T.);
#228=ORIENTED_EDGE('',*,*,#227,.F.);
#229=EDGE_LOOP('',(#228));
#230=FACE_BOUND('',#229,.T.);
#231=ADVANCED_FACE('',(#219,#230),#216,.T.);
#232=CARTESIAN_POINT('',(-1.876399E-014,38.499999999999993,0.0));
#233=DIRECTION('',(-4.873763E-016,1.0,0.0));
#234=DIRECTION('',(1.0,0.0,0.0));
#235=AXIS2_PLACEMENT_3D('',#232,#233,#234);
#236=CONICAL_SURFACE('',#235,46.257359312880695,45.000000000000007);
#237=CARTESIAN_POINT('',(43.757359312880681,36.000000000000007,0.0));
#238=VERTEX_POINT('',#237);
#239=CARTESIAN_POINT('',(-1.754555E-014,35.999999999999986,0.0));
#240=DIRECTION('',(0.0,-1.0,0.0));
#241=DIRECTION('',(1.0,0.0,0.0));
#242=AXIS2_PLACEMENT_3D('',#239,#240,#241);
#243=CIRCLE('',#242,43.757359312880695);
#244=EDGE_CURVE('',#238,#238,#243,.T.);
#245=ORIENTED_EDGE('',*,*,#244,.F.);
#246=EDGE_LOOP('',(#245));
#247=FACE_OUTER_BOUND('',#246,.T.);
#248=ORIENTED_EDGE('',*,*,#227,.T.);
#249=EDGE_LOOP('',(#248));
#250=FACE_BOUND('',#249,.T.);
#251=ADVANCED_FACE('',(#247,#250),#236,.T.);
#252=CARTESIAN_POINT('',(21.87867965644033,35.999999999999986,0.0));
#253=DIRECTION('',(0.0,-1.0,0.0));
#254=DIRECTION('',(0.0,0.0,-1.0));
#255=AXIS2_PLACEMENT_3D('',#252,#253,#254);
#256=PLANE('',#255);
#257=ORIENTED_EDGE('',*,*,#244,.T.);
#258=EDGE_LOOP('',(#257));
#259=FACE_OUTER_BOUND('',#258,.T.);
#260=ORIENTED_EDGE('',*,*,#80,.T.);
#261=EDGE_LOOP('',(#260));
#262=FACE_BOUND('',#261,.T.);
#263=ORIENTED_EDGE('',*,*,#108,.T.);
#264=EDGE_LOOP('',(#263));
#265=FACE_BOUND('',#264,.T.);
#266=ADVANCED_FACE('',(#259,#262,#265),#256,.T.);
#267=CARTESIAN_POINT('',(21.67157287525378,36.999999999999986,0.0));
#268=DIRECTION('',(0.0,1.0,0.0));
#269=DIRECTION('',(0.0,0.0,1.0));
#270=AXIS2_PLACEMENT_3D('',#267,#268,#269);
#271=PLANE('',#270);
#272=CARTESIAN_POINT('',(43.343145750507581,37.000000000000014,0.0));
#273=VERTEX_POINT('',#272);
#274=CARTESIAN_POINT('',(-1.803292E-014,36.999999999999993,0.0));
#275=DIRECTION('',(0.0,-1.0,0.0));
#276=DIRECTION('',(1.0,0.0,0.0));
#277=AXIS2_PLACEMENT_3D('',#274,#275,#276);
#278=CIRCLE('',#277,43.343145750507603);
#279=EDGE_CURVE('',#273,#273,#278,.T.);
#280=ORIENTED_EDGE('',*,*,#279,.F.);
#281=EDGE_LOOP('',(#280));
#282=FACE_OUTER_BOUND('',#281,.T.);
#283=ORIENTED_EDGE('',*,*,#91,.T.);
#284=EDGE_LOOP('',(#283));
#285=FACE_BOUND('',#284,.T.);
#286=ORIENTED_EDGE('',*,*,#119,.T.);
#287=EDGE_LOOP('',(#286));
#288=FACE_BOUND('',#287,.T.);
#289=ADVANCED_FACE('',(#282,#285,#288),#271,.T.);
#290=CARTESIAN_POINT('',(-1.925136E-014,39.5,0.0));
#291=DIRECTION('',(-4.873763E-016,1.0,0.0));
#292=DIRECTION('',(1.0,0.0,0.0));
#293=AXIS2_PLACEMENT_3D('',#290,#291,#292);
#294=CONICAL_SURFACE('',#293,45.843145750507603,45.000000000000007);
#295=CARTESIAN_POINT('',(48.343145750507581,42.000000000000021,0.0));
#296=VERTEX_POINT('',#295);
#297=CARTESIAN_POINT('',(-2.046981E-014,41.999999999999993,0.0));
#298=DIRECTION('',(0.0,-1.0,0.0));
#299=DIRECTION('',(1.0,0.0,0.0));
#300=AXIS2_PLACEMENT_3D('',#297,#298,#299);
#301=CIRCLE('',#300,48.343145750507603);
#302=EDGE_CURVE('',#296,#296,#301,.T.);
#303=ORIENTED_EDGE('',*,*,#302,.F.);
#304=EDGE_LOOP('',(#303));
#305=FACE_OUTER_BOUND('',#304,.T.);
#306=ORIENTED_EDGE('',*,*,#279,.T.);
#307=EDGE_LOOP('',(#306));
#308=FACE_BOUND('',#307,.T.);
#309=ADVANCED_FACE('',(#305,#308),#294,.F.);
#310=CARTESIAN_POINT('',(52.343145750507588,42.000000000000085,0.0));
#311=DIRECTION('',(0.0,1.0,0.0));
#312=DIRECTION('',(0.0,0.0,1.0));
#313=AXIS2_PLACEMENT_3D('',#310,#311,#312);
#314=PLANE('',#313);
#315=CARTESIAN_POINT('',(56.343145750507581,42.000000000000135,0.0));
#316=VERTEX_POINT('',#315);
#317=CARTESIAN_POINT('',(-2.046981E-014,42.000000000000107,0.0));
#318=DIRECTION('',(0.0,-1.0,0.0));
#319=DIRECTION('',(1.0,0.0,0.0));
#320=AXIS2_PLACEMENT_3D('',#317,#318,#319);
#321=CIRCLE('',#320,56.343145750507595);
#322=EDGE_CURVE('',#316,#316,#321,.T.);
#323=ORIENTED_EDGE('',*,*,#322,.F.);
#324=EDGE_LOOP('',(#323));
#325=FACE_OUTER_BOUND('',#324,.T.);
#326=ORIENTED_EDGE('',*,*,#302,.T.);
#327=EDGE_LOOP('',(#326));
#328=FACE_BOUND('',#327,.T.);
#329=ADVANCED_FACE('',(#325,#328),#314,.T.);
#330=CARTESIAN_POINT('',(-1.909130E-014,39.171572875253922,0.0));
#331=DIRECTION('',(4.873763E-016,-1.0,0.0));
#332=DIRECTION('',(1.0,0.0,0.0));
#333=AXIS2_PLACEMENT_3D('',#330,#331,#332);
#334=CONICAL_SURFACE('',#333,59.171572875253787,45.000000000000071);
#335=CARTESIAN_POINT('',(61.999999999999972,36.343145750507759,0.0));
#336=VERTEX_POINT('',#335);
#337=CARTESIAN_POINT('',(-1.771279E-014,36.343145750507723,0.0));
#338=DIRECTION('',(0.0,-1.0,0.0));
#339=DIRECTION('',(1.0,0.0,0.0));
#340=AXIS2_PLACEMENT_3D('',#337,#338,#339);
#341=CIRCLE('',#340,61.999999999999993);
#342=EDGE_CURVE('',#336,#336,#341,.T.);
#343=ORIENTED_EDGE('',*,*,#342,.F.);
#344=EDGE_LOOP('',(#343));
#345=FACE_OUTER_BOUND('',#344,.T.);
#346=ORIENTED_EDGE('',*,*,#322,.T.);
#347=EDGE_LOOP('',(#346));
#348=FACE_BOUND('',#347,.T.);
#349=ADVANCED_FACE('',(#345,#348),#334,.T.);
#350=CARTESIAN_POINT('',(-9.100083E-015,18.671572875253847,0.0));
#351=DIRECTION('',(4.873763E-016,-1.0,0.0));
#352=DIRECTION('',(1.0,0.0,0.0));
#353=AXIS2_PLACEMENT_3D('',#350,#351,#352);
#354=CYLINDRICAL_SURFACE('',#353,62.0);
#355=CARTESIAN_POINT('',(62.0,1.000000000000001,0.0));
#356=VERTEX_POINT('',#355);
#357=CARTESIAN_POINT('',(-4.873763E-016,0.999999999999971,0.0));
#358=DIRECTION('',(0.0,-1.0,0.0));
#359=DIRECTION('',(1.0,0.0,0.0));
#360=AXIS2_PLACEMENT_3D('',#357,#358,#359);
#361=CIRCLE('',#360,62.0);
#362=EDGE_CURVE('',#356,#356,#361,.T.);
#363=ORIENTED_EDGE('',*,*,#362,.F.);
#364=EDGE_LOOP('',(#363));
#365=FACE_OUTER_BOUND('',#364,.T.);
#366=ORIENTED_EDGE('',*,*,#342,.T.);
#367=EDGE_LOOP('',(#366));
#368=FACE_BOUND('',#367,.T.);
#369=ADVANCED_FACE('',(#365,#368),#354,.T.);
#370=CARTESIAN_POINT('',(63.0,1.000000000000001,0.0));
#371=DIRECTION('',(0.0,1.0,0.0));
#372=DIRECTION('',(0.0,0.0,1.0));
#373=AXIS2_PLACEMENT_3D('',#370,#371,#372);
#374=PLANE('',#373);
#375=ORIENTED_EDGE('',*,*,#147,.F.);
#376=EDGE_LOOP('',(#375));
#377=FACE_OUTER_BOUND('',#376,.T.);
#378=ORIENTED_EDGE('',*,*,#362,.T.);
#379=EDGE_LOOP('',(#378));
#380=FACE_BOUND('',#379,.T.);
#381=ADVANCED_FACE('',(#377,#380),#374,.T.);
#382=CLOSED_SHELL('',(#95,#123,#151,#171,#191,#211,#231,#251,#266,#289,#309,#329,#349,#369,#381));
#383=MANIFOLD_SOLID_BREP('Solid2',#382);
#384=COLOUR_RGB('',0.95686274766922,0.180392161011696,0.152941182255745);
#385=FILL_AREA_STYLE_COLOUR('',#384);
#386=FILL_AREA_STYLE('',(#385));
#387=SURFACE_STYLE_FILL_AREA(#386);
#388=SURFACE_SIDE_STYLE('',(#387));
#389=SURFACE_STYLE_USAGE(.BOTH.,#388);
#390=PRESENTATION_STYLE_ASSIGNMENT((#389));
#391=STYLED_ITEM('',(#390),#95);
#392=STYLED_ITEM('',(#390),#123);
#393=STYLED_ITEM('',(#390),#151);
#394=STYLED_ITEM('',(#390),#171);
#395=STYLED_ITEM('',(#390),#191);
#396=STYLED_ITEM('',(#390),#211);
#397=STYLED_ITEM('',(#390),#231);
#398=STYLED_ITEM('',(#390),#251);
#399=STYLED_ITEM('',(#390),#266);
#400=STYLED_ITEM('',(#390),#289);
#401=STYLED_ITEM('',(#390),#309);
#402=STYLED_ITEM('',(#390),#329);
#403=STYLED_ITEM('',(#390),#349);
#404=STYLED_ITEM('',(#390),#369);
#405=STYLED_ITEM('',(#390),#381);
#406=MECHANICAL_DESIGN_GEOMETRIC_PRESENTATION_REPRESENTATION('',(#391,#392,#393,#394,#395,#396,#397,#398,#399,#400,#401,#402,#403,#404,#405,#414),#67);
#407=COLOUR_RGB('Smooth - White',0.920000016689301,0.920000016689301,0.920000016689301);
#408=FILL_AREA_STYLE_COLOUR('Smooth - White',#407);
#409=FILL_AREA_STYLE('Smooth - White',(#408));
#410=SURFACE_STYLE_FILL_AREA(#409);
#411=SURFACE_SIDE_STYLE('Smooth - White',(#410));
#412=SURFACE_STYLE_USAGE(.BOTH.,#411);
#413=PRESENTATION_STYLE_ASSIGNMENT((#412));
#414=STYLED_ITEM('',(#413),#383);
#415=ADVANCED_BREP_SHAPE_REPRESENTATION('ABSR',(#383),#36);
#416=SHAPE_REPRESENTATION_RELATIONSHIP('SRR','None',#415,#41);
ENDSEC;
END-ISO-10303-21;
